  0
SECTION
  2
HEADER
  9
$ACADVER
  1
AC1015
  9
$ACADMAINTVER
 70
    13
  9
$DWGCODEPAGE
  3
ANSI_1252
  9
$INSBASE
 10
0.0
 20
0.0
 30
0.0
  9
$EXTMIN
 10
1259.8396607314
 20
-7.853806605299999
 30
0.0
  9
$EXTMAX
 10
2520.0
 20
1166.397840112451
 30
0.0
  9
$LIMMIN
 10
0.0
 20
0.0
  9
$LIMMAX
 10
0.0
 20
0.0
  9
$ORTHOMODE
 70
     0
  9
$REGENMODE
 70
     1
  9
$FILLMODE
 70
     1
  9
$QTEXTMODE
 70
     0
  9
$MIRRTEXT
 70
     1
  9
$LTSCALE
 40
1.0
  9
$ATTMODE
 70
     1
  9
$TEXTSIZE
 40
0.0
  9
$TRACEWID
 40
0.05
  9
$TEXTSTYLE
  7
STANDARD
  9
$CLAYER
  8
0
  9
$CELTYPE
  6
CONTINUOUS
  9
$CECOLOR
 62
     3
  9
$CELTSCALE
 40
1.0
  9
$DISPSILH
 70
     0
  9
$DIMSCALE
 40
1.0
  9
$DIMASZ
 40
0.18
  9
$DIMEXO
 40
0.0625
  9
$DIMDLI
 40
0.38
  9
$DIMRND
 40
0.0
  9
$DIMDLE
 40
0.0
  9
$DIMEXE
 40
0.25
  9
$DIMTP
 40
0.01
  9
$DIMTM
 40
-0.01
  9
$DIMTXT
 40
5.0
  9
$DIMCEN
 40
0.09
  9
$DIMTSZ
 40
0.0
  9
$DIMTOL
 70
     0
  9
$DIMLIM
 70
     0
  9
$DIMTIH
 70
     1
  9
$DIMTOH
 70
     1
  9
$DIMSE1
 70
     0
  9
$DIMSE2
 70
     0
  9
$DIMTAD
 70
     0
  9
$DIMZIN
 70
     0
  9
$DIMBLK
  1

  9
$DIMASO
 70
     1
  9
$DIMSHO
 70
     1
  9
$DIMPOST
  1

  9
$DIMAPOST
  1

  9
$DIMALT
 70
     0
  9
$DIMALTD
 70
     2
  9
$DIMALTF
 40
25.4
  9
$DIMLFAC
 40
1.0
  9
$DIMTOFL
 70
     0
  9
$DIMTVP
 40
0.0
  9
$DIMTIX
 70
     0
  9
$DIMSOXD
 70
     0
  9
$DIMSAH
 70
     0
  9
$DIMBLK1
  1

  9
$DIMBLK2
  1

  9
$DIMSTYLE
  2
STANDARD
  9
$DIMCLRD
 70
     0
  9
$DIMCLRE
 70
     0
  9
$DIMCLRT
 70
     3
  9
$DIMTFAC
 40
1.0
  9
$DIMGAP
 40
0.09
  9
$DIMJUST
 70
     0
  9
$DIMSD1
 70
     0
  9
$DIMSD2
 70
     0
  9
$DIMTOLJ
 70
     1
  9
$DIMTZIN
 70
     0
  9
$DIMALTZ
 70
     0
  9
$DIMALTTZ
 70
     0
  9
$DIMUPT
 70
     0
  9
$DIMDEC
 70
     4
  9
$DIMTDEC
 70
     4
  9
$DIMALTU
 70
     2
  9
$DIMALTTD
 70
     2
  9
$DIMTXSTY
  7
STANDARD
  9
$DIMAUNIT
 70
     0
  9
$DIMADEC
 70
     0
  9
$DIMALTRND
 40
0.0
  9
$DIMAZIN
 70
     0
  9
$DIMDSEP
 70
    46
  9
$DIMATFIT
 70
     3
  9
$DIMFRAC
 70
     0
  9
$DIMLDRBLK
  1

  9
$DIMLUNIT
 70
     2
  9
$DIMLWD
 70
    -2
  9
$DIMLWE
 70
    -2
  9
$DIMTMOVE
 70
     0
  9
$LUNITS
 70
     2
  9
$LUPREC
 70
    10
  9
$SKETCHINC
 40
0.1
  9
$FILLETRAD
 40
0.0
  9
$AUNITS
 70
     0
  9
$AUPREC
 70
     0
  9
$MENU
  1
acad
  9
$ELEVATION
 40
0.0
  9
$PELEVATION
 40
0.0
  9
$THICKNESS
 40
0.0
  9
$LIMCHECK
 70
     0
  9
$CHAMFERA
 40
0.0
  9
$CHAMFERB
 40
0.0
  9
$CHAMFERC
 40
0.0
  9
$CHAMFERD
 40
0.0
  9
$SKPOLY
 70
     0
  9
$TDCREATE
 40
2313903.392062696
  9
$TDUCREATE
 40
2313902.996229363
  9
$TDUPDATE
 40
2456147.442084849
  9
$TDUUPDATE
 40
2456147.046251516
  9
$TDINDWG
 40
0.0003567824
  9
$TDUSRTIMER
 40
0.0003567824
  9
$USRTIMER
 70
     1
  9
$ANGBASE
 50
0.0
  9
$ANGDIR
 70
     0
  9
$PDMODE
 70
     2
  9
$PDSIZE
 40
0.0
  9
$PLINEWID
 40
0.0
  9
$SPLFRAME
 70
     0
  9
$SPLINETYPE
 70
     6
  9
$SPLINESEGS
 70
     8
  9
$HANDSEED
  5
A9
  9
$SURFTAB1
 70
     6
  9
$SURFTAB2
 70
     6
  9
$SURFTYPE
 70
     6
  9
$SURFU
 70
     6
  9
$SURFV
 70
     6
  9
$UCSBASE
  2

  9
$UCSNAME
  2

  9
$UCSORG
 10
0.0
 20
0.0
 30
0.0
  9
$UCSXDIR
 10
1.0
 20
0.0
 30
0.0
  9
$UCSYDIR
 10
0.0
 20
1.0
 30
0.0
  9
$UCSORTHOREF
  2

  9
$UCSORTHOVIEW
 70
     0
  9
$UCSORGTOP
 10
0.0
 20
0.0
 30
0.0
  9
$UCSORGBOTTOM
 10
0.0
 20
0.0
 30
0.0
  9
$UCSORGLEFT
 10
0.0
 20
0.0
 30
0.0
  9
$UCSORGRIGHT
 10
0.0
 20
0.0
 30
0.0
  9
$UCSORGFRONT
 10
0.0
 20
0.0
 30
0.0
  9
$UCSORGBACK
 10
0.0
 20
0.0
 30
0.0
  9
$PUCSBASE
  2

  9
$PUCSNAME
  2

  9
$PUCSORG
 10
0.0
 20
0.0
 30
0.0
  9
$PUCSXDIR
 10
1.0
 20
0.0
 30
0.0
  9
$PUCSYDIR
 10
0.0
 20
1.0
 30
0.0
  9
$PUCSORTHOREF
  2

  9
$PUCSORTHOVIEW
 70
     0
  9
$PUCSORGTOP
 10
0.0
 20
0.0
 30
0.0
  9
$PUCSORGBOTTOM
 10
0.0
 20
0.0
 30
0.0
  9
$PUCSORGLEFT
 10
0.0
 20
0.0
 30
0.0
  9
$PUCSORGRIGHT
 10
0.0
 20
0.0
 30
0.0
  9
$PUCSORGFRONT
 10
0.0
 20
0.0
 30
0.0
  9
$PUCSORGBACK
 10
0.0
 20
0.0
 30
0.0
  9
$USERI1
 70
     0
  9
$USERI2
 70
     0
  9
$USERI3
 70
     0
  9
$USERI4
 70
     0
  9
$USERI5
 70
     0
  9
$USERR1
 40
0.0
  9
$USERR2
 40
0.0
  9
$USERR3
 40
0.0
  9
$USERR4
 40
0.0
  9
$USERR5
 40
0.0
  9
$WORLDVIEW
 70
     1
  9
$SHADEDGE
 70
     3
  9
$SHADEDIF
 70
    70
  9
$TILEMODE
 70
     1
  9
$MAXACTVP
 70
    16
  9
$PINSBASE
 10
0.0
 20
0.0
 30
0.0
  9
$PLIMCHECK
 70
     0
  9
$PEXTMIN
 10
1.000000000000000E+20
 20
1.000000000000000E+20
 30
1.000000000000000E+20
  9
$PEXTMAX
 10
-1.000000000000000E+20
 20
-1.000000000000000E+20
 30
-1.000000000000000E+20
  9
$PLIMMIN
 10
0.0
 20
0.0
  9
$PLIMMAX
 10
12.0
 20
9.0
  9
$UNITMODE
 70
     0
  9
$VISRETAIN
 70
     0
  9
$PLINEGEN
 70
     1
  9
$PSLTSCALE
 70
     0
  9
$TREEDEPTH
 70
  3020
  9
$CMLSTYLE
  2
STANDARD
  9
$CMLJUST
 70
     0
  9
$CMLSCALE
 40
1.0
  9
$PROXYGRAPHICS
 70
     0
  9
$MEASUREMENT
 70
     0
  9
$CELWEIGHT
370
    -1
  9
$ENDCAPS
280
     0
  9
$JOINSTYLE
280
     0
  9
$LWDISPLAY
290
     0
  9
$INSUNITS
 70
     0
  9
$HYPERLINKBASE
  1

  9
$STYLESHEET
  1

  9
$XEDIT
290
     1
  9
$CEPSNTYPE
380
     0
  9
$PSTYLEMODE
290
     1
  9
$FINGERPRINTGUID
  2
{CFBD6CF7-C943-4D59-82FB-B88E2C4C5BDF}
  9
$VERSIONGUID
  2
{84B6C900-7914-4276-9A7D-32B76520CA1F}
  9
$EXTNAMES
290
     1
  9
$PSVPSCALE
 40
0.0
  9
$OLESTARTUP
290
     0
  0
ENDSEC
  0
SECTION
  2
CLASSES
  0
CLASS
  1
LWPOLYLINE
  2
AcDbPolyline
  3
AutoCAD 2000
 90
    32768
280
     0
281
     1
  0
CLASS
  1
IMAGE
  2
AcDbRasterImage
  3
ISM
 90
    32895
280
     0
281
     1
  0
CLASS
  1
OLE2FRAME
  2
AcDbOle2Frame
  3
AutoCAD 2000
 90
    32768
280
     0
281
     1
  0
CLASS
  1
HATCH
  2
AcDbHatch
  3
AutoCAD 2000
 90
    32768
280
     0
281
     1
  0
CLASS
  1
DICTIONARYVAR
  2
AcDbDictionaryVar
  3
AutoCAD 2000
 90
        0
280
     0
281
     0
  0
CLASS
  1
RASTERVARIABLES
  2
AcDbRasterVariables
  3
ISM
 90
    32768
280
     0
281
     0
  0
CLASS
  1
IMAGEDEF
  2
AcDbRasterImageDef
  3
ISM
 90
    32768
280
     0
281
     0
  0
CLASS
  1
IMAGEDEF_REACTOR
  2
AcDbRasterImageDefReactor
  3
ISM
 90
    32769
280
     0
281
     0
  0
CLASS
  1
IDBUFFER
  2
AcDbIdBuffer
  3
AutoCAD 2000
 90
    32768
280
     0
281
     0
  0
CLASS
  1
SPATIAL_FILTER
  2
AcDbSpatialFilter
  3
AutoCAD 2000
 90
    32768
280
     0
281
     0
  0
CLASS
  1
XRECORD
  2
AcDbXrecord
  3
AutoCAD 2000
 90
    32768
280
     0
281
     0
  0
CLASS
  1
SORTENTSTABLE
  2
AcDbSortentsTable
  3
AutoCAD 2000
 90
    32768
280
     0
281
     0
  0
CLASS
  1
LAYER_INDEX
  2
AcDbLayerIndex
  3
AutoCAD 2000
 90
    32768
280
     0
281
     0
  0
CLASS
  1
SPATIAL_INDEX
  2
AcDbSpatialIndex
  3
AutoCAD 2000
 90
    32768
280
     0
281
     0
  0
CLASS
  1
OBJECT_PTR
  2
CAseDLPNTableRecord
  3
ASE-LPNTableRecord
 90
    32769
280
     0
281
     0
  0
CLASS
  1
LAYOUT
  2
AcDbLayout
  3
AutoCAD 2000
 90
        0
280
     0
281
     0
  0
CLASS
  1
PLOTSETTINGS
  2
AcDbPlotSettings
  3
AutoCAD 2000
 90
    32768
280
     0
281
     0
  0
CLASS
  1
ACDBDICTIONARYWDFLT
  2
AcDbDictionaryWithDefault
  3
AutoCAD 2000
 90
        0
280
     0
281
     0
  0
CLASS
  1
ACDBPLACEHOLDER
  2
AcDbPlaceHolder
  3
AutoCAD 2000
 90
        0
280
     0
281
     0
  0
CLASS
  1
VBA_PROJECT
  2
AcDbVbaProject
  3
acadvba
 90
    32768
280
     0
281
     0
  0
CLASS
  1
WIPEOUT
  2
AcDbWipeout
  3
WipeOut|AutoCAD Express Tool|expresstools@autodesk.com
 90
    32895
280
     0
281
     1
  0
CLASS
  1
WIPEOUTVARIABLES
  2
AcDbWipeoutVariables
  3
WipeOut|AutoCAD Express Tool|expresstools@autodesk.com
 90
    32768
280
     0
281
     0
  0
CLASS
  1
RTEXT
  2
RText
  3
RText|AutoCAD Express Tool|expresstools@autodesk.com
 90
    32768
280
     0
281
     1
  0
CLASS
  1
ARCALIGNEDTEXT
  2
AcDbArcAlignedText
  3
ATEXT|AutoCAD Express Tool|expresstools@autodesk.com
 90
    32768
280
     0
281
     1
  0
ENDSEC
  0
SECTION
  2
TABLES
  0
TABLE
  2
VPORT
  5
7
330
0
100
AcDbSymbolTable
 70
     2
  0
VPORT
  5
A8
330
7
100
AcDbSymbolTableRecord
100
AcDbViewportTableRecord
  2
*Active
 70
     0
 10
0.0
 20
0.0
 11
1.0
 21
1.0
 12
2203.642204201986
 22
593.0997109827
 13
0.0
 23
0.0
 14
1.0
 24
1.0
 15
0.0
 25
0.0
 16
0.0
 26
0.0
 36
1.0
 17
0.0
 27
0.0
 37
0.0
 40
1885.7261306533
 41
2.470817120622568
 42
50.0
 43
0.0
 44
0.0
 50
0.0
 51
0.0
 71
     0
 72
   100
 73
     1
 74
     1
 75
     0
 76
     0
 77
     0
 78
     0
281
     0
 65
     1
110
0.0
120
0.0
130
0.0
111
1.0
121
0.0
131
0.0
112
0.0
122
1.0
132
0.0
 79
     0
146
0.0
  0
ENDTAB
  0
TABLE
  2
LTYPE
  5
4
330
0
100
AcDbSymbolTable
 70
     4
  0
LTYPE
  5
11
330
4
100
AcDbSymbolTableRecord
100
AcDbLinetypeTableRecord
  2
BYBLOCK
 70
     0
  3

 72
    65
 73
     0
 40
0.0
  0
LTYPE
  5
12
330
4
100
AcDbSymbolTableRecord
100
AcDbLinetypeTableRecord
  2
BYLAYER
 70
     0
  3

 72
    65
 73
     0
 40
0.0
  0
LTYPE
  5
13
330
4
100
AcDbSymbolTableRecord
100
AcDbLinetypeTableRecord
  2
CONTINUOUS
 70
     0
  3
Solid line
 72
    65
 73
     0
 40
0.0
  0
LTYPE
  5
1D
330
4
100
AcDbSymbolTableRecord
100
AcDbLinetypeTableRecord
  2
DASHED
 70
     0
  3
_ _ _ _ _ _ _ _ _ _ _ _ _ _ _ _
 72
    65
 73
     2
 40
0.2
 49
0.1
 74
     0
 49
-0.1
 74
     0
  0
LTYPE
  5
1E
330
4
100
AcDbSymbolTableRecord
100
AcDbLinetypeTableRecord
  2
CENTER
 70
     0
  3
___ _ ___ _ ___ _ ___ _ ___ _ ___ _ ___ _ ___ _
 72
    65
 73
     4
 40
0.95
 49
0.625
 74
     0
 49
-0.125
 74
     0
 49
0.075
 74
     0
 49
-0.125
 74
     0
  0
LTYPE
  5
1F
330
4
100
AcDbSymbolTableRecord
100
AcDbLinetypeTableRecord
  2
PHANTOM
 70
     0
  3
______  __  __  ______  __  __  ______  __  __  
 72
    65
 73
     6
 40
1.024999999999999
 49
0.625
 74
     0
 49
-0.125
 74
     0
 49
0.075
 74
     0
 49
-0.125
 74
     0
 49
0.075
 74
     0
 49
-0.125
 74
     0
  0
ENDTAB
  0
TABLE
  2
LAYER
  5
2
330
0
100
AcDbSymbolTable
 70
     3
  0
LAYER
  5
14
330
2
100
AcDbSymbolTableRecord
100
AcDbLayerTableRecord
  2
0
 70
     0
 62
     7
  6
CONTINUOUS
370
    -3
390
9B
  0
LAYER
  5
21
330
2
100
AcDbSymbolTableRecord
100
AcDbLayerTableRecord
  2
CK_LEVEL_1
 70
     0
 62
     7
  6
CONTINUOUS
370
    -3
390
9B
  0
LAYER
  5
22
330
2
100
AcDbSymbolTableRecord
100
AcDbLayerTableRecord
  2
CK_LEVEL_2
 70
     0
 62
     7
  6
CONTINUOUS
370
    -3
390
9B
  0
ENDTAB
  0
TABLE
  2
STYLE
  5
3
330
0
100
AcDbSymbolTable
 70
     1
  0
STYLE
  5
17
330
3
100
AcDbSymbolTableRecord
100
AcDbTextStyleTableRecord
  2
STANDARD
 70
     0
 40
0.0
 41
1.0
 50
0.0
 71
     0
 42
0.0
  3
txt
  4

  0
ENDTAB
  0
TABLE
  2
VIEW
  5
5
330
0
100
AcDbSymbolTable
 70
     0
  0
ENDTAB
  0
TABLE
  2
UCS
  5
6
330
0
100
AcDbSymbolTable
 70
     1
  0
UCS
  5
20
330
6
100
AcDbSymbolTableRecord
100
AcDbUCSTableRecord
  2
CK_VIEW_1
 70
     0
 10
0.0
 20
0.0
 30
1.0
 11
1.0
 21
0.0
 31
0.0
 12
0.0
 22
1.0
 32
0.0
 79
     0
146
0.0
  0
ENDTAB
  0
TABLE
  2
APPID
  5
8
330
0
100
AcDbSymbolTable
 70
     2
  0
APPID
  5
16
330
8
100
AcDbSymbolTableRecord
100
AcDbRegAppTableRecord
  2
ACAD
 70
     0
  0
APPID
  5
A4
330
8
100
AcDbSymbolTableRecord
100
AcDbRegAppTableRecord
  2
DCO15
 70
     0
  0
ENDTAB
  0
TABLE
  2
DIMSTYLE
  5
9
330
0
100
AcDbSymbolTable
 70
     1
100
AcDbDimStyleTable
 71
     0
  0
DIMSTYLE
105
18
330
9
100
AcDbSymbolTableRecord
100
AcDbDimStyleTableRecord
  2
STANDARD
 70
     0
340
17
  0
ENDTAB
  0
TABLE
  2
BLOCK_RECORD
  5
1
330
0
100
AcDbSymbolTable
 70
     0
  0
BLOCK_RECORD
  5
A
330
1
100
AcDbSymbolTableRecord
100
AcDbBlockTableRecord
  2
*MODEL_SPACE
340
9E
  0
BLOCK_RECORD
  5
B
330
1
100
AcDbSymbolTableRecord
100
AcDbBlockTableRecord
  2
*PAPER_SPACE
340
9F
  0
ENDTAB
  0
ENDSEC
  0
SECTION
  2
BLOCKS
  0
BLOCK
  5
D
330
A
100
AcDbEntity
  8
0
100
AcDbBlockBegin
  2
*MODEL_SPACE
 70
     0
 10
0.0
 20
0.0
 30
0.0
  3
*MODEL_SPACE
  1

  0
ENDBLK
  5
E
330
A
100
AcDbEntity
  8
0
100
AcDbBlockEnd
  0
BLOCK
  5
F
330
B
100
AcDbEntity
 67
     1
  8
0
100
AcDbBlockBegin
  2
*PAPER_SPACE
 70
     0
 10
0.0
 20
0.0
 30
0.0
  3
*PAPER_SPACE
  1

  0
ENDBLK
  5
10
330
B
100
AcDbEntity
 67
     1
  8
0
100
AcDbBlockEnd
  0
ENDSEC
  0
SECTION
  2
ENTITIES
  0
LINE
  5
23
330
A
100
AcDbEntity
  8
CK_LEVEL_2
  6
Continuous
 62
     3
100
AcDbLine
 10
1700.518882469099
 20
462.5818147638
 30
0.0
 11
1701.8396607314
 21
515.1461933947
 31
0.0
  0
LINE
  5
24
330
A
100
AcDbEntity
  8
CK_LEVEL_2
  6
Continuous
 62
     3
100
AcDbLine
 10
1350.8396607314
 20
515.1461933947
 30
0.0
 11
1352.1604389937
 21
462.5818147638
 31
0.0
  0
LINE
  5
25
330
A
100
AcDbEntity
  8
CK_LEVEL_2
  6
Continuous
 62
     3
100
AcDbLine
 10
2164.8538066053
 20
1166.3969994481
 30
0.0
 11
2165.4661841297
 21
1109.0825790725
 31
0.0
  0
LINE
  5
26
330
A
100
AcDbEntity
  8
CK_LEVEL_2
  6
Continuous
 62
     3
100
AcDbLine
 10
2167.2248982561
 20
978.5523768188999
 30
0.0
 11
2167.8538066053
 21
933.3969994481
 31
0.0
  0
LINE
  5
27
330
A
100
AcDbEntity
  8
CK_LEVEL_2
  6
Continuous
 62
     3
100
AcDbLine
 10
2166.8538066053
 20
1005.3969994481
 30
0.0
 11
2167.2248982561
 21
978.5523768188999
 31
0.0
  0
LINE
  5
28
330
A
100
AcDbEntity
  8
CK_LEVEL_2
  6
Continuous
 62
     3
100
AcDbLine
 10
2165.8638066053
 20
1077.3969994481
 30
0.0
 11
2166.8538066053
 21
1005.3969994481
 31
0.0
  0
LINE
  5
29
330
A
100
AcDbEntity
  8
CK_LEVEL_2
  6
Continuous
 62
     3
100
AcDbLine
 10
2360.2349512943
 20
1020.0471955264
 30
0.0
 11
2361.8538066053
 21
1077.3969994481
 31
0.0
  0
LINE
  5
2A
330
A
100
AcDbEntity
  8
CK_LEVEL_1
  6
Continuous
 62
     3
100
AcDbLine
 10
1316.8248032068
 20
757.1636360996
 30
0.0
 11
1316.8248032068
 21
904.1636360995999
 31
0.0
  0
LINE
  5
2B
330
A
100
AcDbEntity
  8
CK_LEVEL_1
  6
Continuous
 62
     3
100
AcDbLine
 10
1319.8248032068
 20
907.1636360996
 30
0.0
 11
1354.6406690734
 21
907.1636360996
 31
0.0
  0
LINE
  5
2C
330
A
100
AcDbEntity
  8
CK_LEVEL_1
  6
Continuous
 62
     3
100
AcDbLine
 10
1706.0089373402
 20
907.1636360996
 30
0.0
 11
1733.824803206799
 21
907.1636360996
 31
0.0
  0
LINE
  5
2D
330
A
100
AcDbEntity
  8
CK_LEVEL_1
  6
Continuous
 62
     3
100
AcDbLine
 10
1736.8248032068
 20
757.1636360996
 30
0.0
 11
1736.8248032068
 21
904.1636360995999
 31
0.0
  0
LINE
  5
2E
330
A
100
AcDbEntity
  8
CK_LEVEL_1
  6
Continuous
 62
     3
100
AcDbLine
 10
1700.8248032068
 20
754.1636360996
 30
0.0
 11
1733.824803206799
 21
754.1636360996
 31
0.0
  0
LINE
  5
2F
330
A
100
AcDbEntity
  8
CK_LEVEL_1
  6
Continuous
 62
     3
100
AcDbLine
 10
1319.8248032068
 20
754.1636360996
 30
0.0
 11
1353.8248032068
 21
754.1636360996
 31
0.0
  0
LINE
  5
30
330
A
100
AcDbEntity
  8
CK_LEVEL_1
  6
Continuous
 62
     3
100
AcDbLine
 10
1353.8248032068
 20
754.1636360996
 30
0.0
 11
1517.5794957281
 21
793.6225981528999
 31
0.0
  0
LINE
  5
31
330
A
100
AcDbEntity
  8
CK_LEVEL_1
  6
Continuous
 62
     3
100
AcDbLine
 10
1522.079963328599
 20
793.6652581721
 30
0.0
 11
1700.8248032068
 21
754.1636360996
 31
0.0
  0
LINE
  5
32
330
A
100
AcDbEntity
  8
CK_LEVEL_1
  6
Continuous
 62
     3
100
AcDbLine
 10
2081.8538066053
 20
573.3969994480999
 30
0.0
 11
2081.8538066053
 21
1166.3969994481
 31
0.0
  0
LINE
  5
33
330
A
100
AcDbEntity
  8
CK_LEVEL_1
  6
Continuous
 62
     3
100
AcDbLine
 10
2081.8538066053
 20
573.3969994480999
 30
0.0
 11
2441.8538066053
 21
573.3969994480999
 31
0.0
  0
LINE
  5
34
330
A
100
AcDbEntity
  8
CK_LEVEL_1
  6
Continuous
 62
     3
100
AcDbLine
 10
2441.8538066053
 20
573.3969994480999
 30
0.0
 11
2441.8538066053
 21
1166.3969994481
 31
0.0
  0
LINE
  5
35
330
A
100
AcDbEntity
  8
CK_LEVEL_1
  6
Continuous
 62
     3
100
AcDbLine
 10
2361.8538066053
 20
1166.3969994481
 30
0.0
 11
2441.8538066053
 21
1166.3969994481
 31
0.0
  0
LINE
  5
36
330
A
100
AcDbEntity
  8
CK_LEVEL_1
  6
Continuous
 62
     3
100
AcDbLine
 10
2081.8538066053
 20
1166.3969994481
 30
0.0
 11
2164.8538066053
 21
1166.3969994481
 31
0.0
  0
LINE
  5
37
330
A
100
AcDbEntity
  8
CK_LEVEL_1
  6
Continuous
 62
     3
100
AcDbLine
 10
1259.8396607314
 20
-7.853806605299999
 30
0.0
 11
1785.8396607314
 21
-7.853806605299999
 31
0.0
  0
LINE
  5
38
330
A
100
AcDbEntity
  8
CK_LEVEL_1
  6
Continuous
 62
     3
100
AcDbLine
 10
1785.8396607314
 20
-7.853806605299999
 30
0.0
 11
1785.8396607314
 21
564.1461933947
 31
0.0
  0
LINE
  5
39
330
A
100
AcDbEntity
  8
CK_LEVEL_1
  6
Continuous
 62
     3
100
AcDbLine
 10
1701.8396607314
 20
564.1461933947
 30
0.0
 11
1785.8396607314
 21
564.1461933947
 31
0.0
  0
LINE
  5
3A
330
A
100
AcDbEntity
  8
CK_LEVEL_1
  6
Continuous
 62
     3
100
AcDbLine
 10
1259.8396607314
 20
-7.853806605299999
 30
0.0
 11
1259.8396607314
 21
564.1461933947
 31
0.0
  0
LINE
  5
3B
330
A
100
AcDbEntity
  8
CK_LEVEL_1
  6
Continuous
 62
     3
100
AcDbLine
 10
1259.8396607314
 20
564.1461933947
 30
0.0
 11
1350.8396607314
 21
564.1461933947
 31
0.0
  0
LINE
  5
3C
330
A
100
AcDbEntity
  8
CK_LEVEL_1
  6
Continuous
 62
     3
100
AcDbLine
 10
2440.0
 20
430.0
 30
0.0
 11
2520.0
 21
430.0
 31
0.0
  0
LINE
  5
3D
330
A
100
AcDbEntity
  8
CK_LEVEL_1
  6
Continuous
 62
     3
100
AcDbLine
 10
2520.0
 20
0.0
 30
0.0
 11
2520.0
 21
430.0
 31
0.0
  0
LINE
  5
3E
330
A
100
AcDbEntity
  8
CK_LEVEL_1
  6
Continuous
 62
     3
100
AcDbLine
 10
2000.0
 20
0.0
 30
0.0
 11
2520.0
 21
0.0
 31
0.0
  0
LINE
  5
3F
330
A
100
AcDbEntity
  8
CK_LEVEL_1
  6
Continuous
 62
     3
100
AcDbLine
 10
2000.0
 20
0.0
 30
0.0
 11
2000.0
 21
430.0
 31
0.0
  0
LINE
  5
40
330
A
100
AcDbEntity
  8
CK_LEVEL_1
  6
Continuous
 62
     3
100
AcDbLine
 10
2000.0
 20
430.0
 30
0.0
 11
2085.0
 21
430.0
 31
0.0
  0
LINE
  5
41
330
A
100
AcDbEntity
  8
CK_LEVEL_1
  6
Continuous
 62
     3
100
AcDbLine
 10
2085.0
 20
360.0
 30
0.0
 11
2085.0
 21
430.0
 31
0.0
  0
ARC
  5
42
330
A
100
AcDbEntity
  8
CK_LEVEL_1
  6
Continuous
 62
     3
100
AcDbCircle
 10
1319.8248032068
 20
904.1636360995999
 30
0.0
 40
3.0
100
AcDbArc
 50
90.0
 51
180.0
  0
ARC
  5
43
330
A
100
AcDbEntity
  8
CK_LEVEL_1
  6
Continuous
 62
     3
100
AcDbCircle
 10
1733.824803206799
 20
904.1636360995999
 30
0.0
 40
3.0
100
AcDbArc
 50
0.0
 51
90.0
  0
ARC
  5
44
330
A
100
AcDbEntity
  8
CK_LEVEL_1
  6
Continuous
 62
     3
100
AcDbCircle
 10
1733.824803206799
 20
757.1636360996
 30
0.0
 40
3.0
100
AcDbArc
 50
270.0
 51
360.0
  0
ARC
  5
45
330
A
100
AcDbEntity
  8
CK_LEVEL_1
  6
Continuous
 62
     3
100
AcDbCircle
 10
1319.8248032068
 20
757.1636360996
 30
0.0
 40
3.0
100
AcDbArc
 50
180.0
 51
270.0
  0
ARC
  5
46
330
A
100
AcDbEntity
  8
CK_LEVEL_1
  6
Continuous
 62
     3
100
AcDbCircle
 10
1530.324803206799
 20
1282.795215047
 30
0.0
 40
413.7648282568999
100
AcDbArc
 50
245.5071729745
 51
294.4928270255
  0
ARC
  5
47
330
A
100
AcDbEntity
  8
CK_LEVEL_1
  6
Continuous
 62
     3
100
AcDbCircle
 10
1706.0089373402
 20
897.1636360995999
 30
0.0
 40
10.0
100
AcDbArc
 50
90.0
 51
114.4928270255
  0
ARC
  5
48
330
A
100
AcDbEntity
  8
CK_LEVEL_1
  6
Continuous
 62
     3
100
AcDbCircle
 10
1354.6406690734
 20
897.1636360995999
 30
0.0
 40
10.0
100
AcDbArc
 50
65.50717297449999
 51
90.0
  0
ARC
  5
49
330
A
100
AcDbEntity
  8
CK_LEVEL_1
  6
Continuous
 62
     3
100
AcDbCircle
 10
1519.9220843014
 20
783.9008555737
 30
0.0
 40
10.0
100
AcDbArc
 50
77.5382440794
 51
103.547938988
  0
ARC
  5
4A
330
A
100
AcDbEntity
  8
CK_LEVEL_2
  6
Continuous
 62
     3
100
AcDbCircle
 10
-1357.4648937197
 20
1109.30500836
 30
0.0
 40
3719.7568589941
100
AcDbArc
 50
0.0
 51
0.8794280652000001
  0
ARC
  5
4B
330
A
100
AcDbEntity
  8
CK_LEVEL_2
  6
Continuous
 62
     3
100
AcDbCircle
 10
1200.2551421399
 20
1109.30500836
 30
0.0
 40
1162.0368231344
100
AcDbArc
 50
358.4265351821999
 51
360.0
  0
ARC
  5
4C
330
A
100
AcDbEntity
  8
CK_LEVEL_2
  6
Continuous
 62
     3
100
AcDbCircle
 10
4828.1764315434
 20
948.5103000138
 30
0.0
 40
2468.9780633602
100
AcDbArc
 50
178.3396628906
 51
178.6797548799999
  0
ARC
  5
4D
330
A
100
AcDbEntity
  8
CK_LEVEL_2
  6
Continuous
 62
     3
100
AcDbCircle
 10
4325.765492996
 20
960.0892158998
 30
0.0
 40
1966.4337146056
100
AcDbArc
 50
178.6797548799999
 51
179.7298377831999
  0
ARC
  5
4E
330
A
100
AcDbEntity
  8
CK_LEVEL_2
  6
Continuous
 62
     3
100
AcDbCircle
 10
400.7145544013
 20
978.5968325206999
 30
0.0
 40
1958.6608578137
100
AcDbArc
 50
358.6776732815
 51
359.7298377833
  0
ARC
  5
4F
330
A
100
AcDbEntity
  8
CK_LEVEL_2
  6
Continuous
 62
     3
100
AcDbCircle
 10
1781.553562758799
 20
946.7228518486999
 30
0.0
 40
577.4540240464
100
AcDbArc
 50
356.1214754971999
 51
358.6776732815
  0
ARC
  5
50
330
A
100
AcDbEntity
  8
CK_LEVEL_2
  6
Continuous
 62
     3
100
AcDbCircle
 10
1389.9572920625
 20
973.2717515568999
 30
0.0
 40
969.9492256718
100
AcDbArc
 50
354.1492158766999
 51
356.1214754971999
  0
ARC
  5
51
330
A
100
AcDbEntity
  8
CK_LEVEL_2
  6
Continuous
 62
     3
100
AcDbCircle
 10
1979.2036672986
 20
912.8905724311
 30
0.0
 40
377.6172431472999
100
AcDbArc
 50
351.4163785198999
 51
354.1492158766999
  0
ARC
  5
52
330
A
100
AcDbEntity
  8
CK_LEVEL_2
  6
Continuous
 62
     3
100
AcDbCircle
 10
893.7044657251
 20
1076.739508517599
 30
0.0
 40
1475.4127571085
100
AcDbArc
 50
350.0339194127
 51
351.4163785198999
  0
ARC
  5
53
330
A
100
AcDbEntity
  8
CK_LEVEL_2
  6
Continuous
 62
     3
100
AcDbCircle
 10
1762.4458088166
 20
924.0872049746
 30
0.0
 40
593.3615981763999
100
AcDbArc
 50
346.7014296694999
 51
350.0339194127
  0
ARC
  5
54
330
A
100
AcDbEntity
  8
CK_LEVEL_2
  6
Continuous
 62
     3
100
AcDbCircle
 10
2104.189958641899
 20
843.3113150159
 30
0.0
 40
242.2009393056999
100
AcDbArc
 50
341.4843261613
 51
346.7014296694999
  0
ARC
  5
55
330
A
100
AcDbEntity
  8
CK_LEVEL_2
  6
Continuous
 62
     3
100
AcDbCircle
 10
2197.9889589642
 20
811.8980735558
 30
0.0
 40
143.2815569761
100
AcDbArc
 50
335.8977654988
 51
341.4843261613
  0
ARC
  5
56
330
A
100
AcDbEntity
  8
CK_LEVEL_2
  6
Continuous
 62
     3
100
AcDbCircle
 10
1814.5953010266
 20
983.4162889489
 30
0.0
 40
563.2925034506
100
AcDbArc
 50
333.081041038
 51
335.8977654988
  0
ARC
  5
57
330
A
100
AcDbEntity
  8
CK_LEVEL_2
  6
Continuous
 62
     3
100
AcDbCircle
 10
2035.7979806891
 20
871.1017147274001
 30
0.0
 40
315.2094748645
100
AcDbArc
 50
329.0362434679
 51
333.081041038
  0
ARC
  5
58
330
A
100
AcDbEntity
  8
CK_LEVEL_2
  6
Continuous
 62
     3
100
AcDbCircle
 10
2216.9503076873
 20
762.4103185285
 30
0.0
 40
103.9513739913999
100
AcDbArc
 50
321.9898832086
 51
329.0362434679
  0
ARC
  5
59
330
A
100
AcDbEntity
  8
CK_LEVEL_2
  6
Continuous
 62
     3
100
AcDbCircle
 10
2266.2816029374
 20
723.8544572378999
 30
0.0
 40
41.34042342439999
100
AcDbArc
 50
310.3645365730999
 51
321.9898832086
  0
ARC
  5
5A
330
A
100
AcDbEntity
  8
CK_LEVEL_2
  6
Continuous
 62
     3
100
AcDbCircle
 10
2170.1841605786
 20
836.9102717777
 30
0.0
 40
189.7194503424
100
AcDbArc
 50
304.9451001796
 51
310.3645365730999
  0
ARC
  5
5B
330
A
100
AcDbEntity
  8
CK_LEVEL_2
  6
Continuous
 62
     3
100
AcDbCircle
 10
2230.220037459199
 20
750.9950598279999
 30
0.0
 40
84.9066164088
100
AcDbArc
 50
295.2011236454999
 51
304.9451001796
  0
ARC
  5
5C
330
A
100
AcDbEntity
  8
CK_LEVEL_2
  6
Continuous
 62
     3
100
AcDbCircle
 10
2262.7193474235
 20
681.9340261539
 30
0.0
 40
8.580791681699999
100
AcDbArc
 50
264.2107532861999
 51
295.2011236454999
  0
ARC
  5
5D
330
A
100
AcDbEntity
  8
CK_LEVEL_2
  6
Continuous
 62
     3
100
AcDbCircle
 10
2263.043632028499
 20
685.1325192522
 30
0.0
 40
11.7956818205
100
AcDbArc
 50
241.9275130641
 51
264.2107532861999
  0
ARC
  5
5E
330
A
100
AcDbEntity
  8
CK_LEVEL_2
  6
Continuous
 62
     3
100
AcDbCircle
 10
2299.6178434404
 20
753.7091656495999
 30
0.0
 40
89.5158810708
100
AcDbArc
 50
233.882882752
 51
241.9275130641
  0
ARC
  5
5F
330
A
100
AcDbEntity
  8
CK_LEVEL_2
  6
Continuous
 62
     3
100
AcDbCircle
 10
2378.2403585077
 20
861.459912517
 30
0.0
 40
222.9014999583
100
AcDbArc
 50
229.6354634269
 51
233.882882752
  0
ARC
  5
60
330
A
100
AcDbEntity
  8
CK_LEVEL_2
  6
Continuous
 62
     3
100
AcDbCircle
 10
2284.2569181248
 20
750.8911591252999
 30
0.0
 40
77.7865927544
100
AcDbArc
 50
222.4423807124999
 51
229.6354634269
  0
ARC
  5
61
330
A
100
AcDbEntity
  8
CK_LEVEL_2
  6
Continuous
 62
     3
100
AcDbCircle
 10
2300.862939003
 20
766.0770800363
 30
0.0
 40
100.2893064424
100
AcDbArc
 50
213.690067526
 51
222.4423807124999
  0
ARC
  5
62
330
A
100
AcDbEntity
  8
CK_LEVEL_2
  6
Continuous
 62
     3
100
AcDbCircle
 10
2371.9537854803
 20
813.4709776879001
 30
0.0
 40
185.7298705057
100
AcDbArc
 50
207.2614916283
 51
213.690067526
  0
ARC
  5
63
330
A
100
AcDbEntity
  8
CK_LEVEL_2
  6
Continuous
 62
     3
100
AcDbCircle
 10
2470.019664423599
 20
864.0031128711999
 30
0.0
 40
296.0494666757
100
AcDbArc
 50
202.8336541779
 51
207.2614916283
  0
ARC
  5
64
330
A
100
AcDbEntity
  8
CK_LEVEL_2
  6
Continuous
 62
     3
100
AcDbCircle
 10
2373.664669167899
 20
823.4325885529999
 30
0.0
 40
191.5016185190999
100
AcDbArc
 50
197.3275219141
 51
202.8336541779
  0
ARC
  5
65
330
A
100
AcDbEntity
  8
CK_LEVEL_2
  6
Continuous
 62
     3
100
AcDbCircle
 10
2571.3782214101
 20
885.1177027091999
 30
0.0
 40
398.6143946791
100
AcDbArc
 50
193.2985703305
 51
197.3275219141
  0
ARC
  5
66
330
A
100
AcDbEntity
  8
CK_LEVEL_2
  6
Continuous
 62
     3
100
AcDbCircle
 10
2585.385352587699
 20
888.4284791694
 30
0.0
 40
413.0074820683
100
AcDbArc
 50
189.3404731047
 51
193.2985703305
  0
ARC
  5
67
330
A
100
AcDbEntity
  8
CK_LEVEL_2
  6
Continuous
 62
     3
100
AcDbCircle
 10
3249.158277217
 20
997.6069753507001
 30
0.0
 40
1085.699417131799
100
AcDbArc
 50
187.5238204386
 51
189.3404731047
  0
ARC
  5
68
330
A
100
AcDbEntity
  8
CK_LEVEL_2
  6
Continuous
 62
     3
100
AcDbCircle
 10
2502.4652421953
 20
898.9871405364999
 30
0.0
 40
332.5219079291999
100
AcDbArc
 50
184.2409194203999
 51
187.5238204386
  0
ARC
  5
69
330
A
100
AcDbEntity
  8
CK_LEVEL_2
  6
Continuous
 62
     3
100
AcDbCircle
 10
3727.8373832257
 20
989.85274588
 30
0.0
 40
1561.2584306417
100
AcDbArc
 50
182.9108378262
 51
184.2409194203999
  0
ARC
  5
6A
330
A
100
AcDbEntity
  8
CK_LEVEL_2
  6
Continuous
 62
     3
100
AcDbCircle
 10
2787.832254781899
 20
942.0558749421999
 30
0.0
 40
620.0389119469
100
AcDbArc
 50
180.8001645358999
 51
182.9108378262
  0
ARC
  5
6B
330
A
100
AcDbEntity
  8
CK_LEVEL_2
  6
Continuous
 62
     3
100
AcDbCircle
 10
15362.2850686583
 20
1258.8442315822
 30
0.0
 40
13197.6686283455
100
AcDbArc
 50
180.6501826214
 51
180.7877518703
  0
ARC
  5
6C
330
A
100
AcDbEntity
  8
CK_LEVEL_2
  6
Continuous
 62
     3
100
AcDbCircle
 10
4137.128342896099
 20
531.1590846058
 30
0.0
 40
2786.4839439166
100
AcDbArc
 50
179.3217020808999
 51
180.0
  0
ARC
  5
6D
330
A
100
AcDbEntity
  8
CK_LEVEL_2
  6
Continuous
 62
     3
100
AcDbCircle
 10
2007.3291042824
 20
531.1590846058
 30
0.0
 40
656.684705303
100
AcDbArc
 50
180.0
 51
181.397264201
  0
ARC
  5
6E
330
A
100
AcDbEntity
  8
CK_LEVEL_2
  6
Continuous
 62
     3
100
AcDbCircle
 10
1734.8471111207
 20
472.4788838704999
 30
0.0
 40
382.8146300764
100
AcDbArc
 50
181.4814571709
 51
182.295454341
  0
ARC
  5
6F
330
A
100
AcDbEntity
  8
CK_LEVEL_2
  6
Continuous
 62
     3
100
AcDbCircle
 10
2143.7960164923
 20
488.8714717276
 30
0.0
 40
792.0919494349
100
AcDbArc
 50
182.295454341
 51
184.398705355
  0
ARC
  5
70
330
A
100
AcDbEntity
  8
CK_LEVEL_2
  6
Continuous
 62
     3
100
AcDbCircle
 10
2573.2839737415
 20
521.9090069006999
 30
0.0
 40
1222.848706958699
100
AcDbArc
 50
184.398705355
 51
186.0914207808
  0
ARC
  5
71
330
A
100
AcDbEntity
  8
CK_LEVEL_2
  6
Continuous
 62
     3
100
AcDbCircle
 10
2118.5005750647
 20
473.3755562181999
 30
0.0
 40
765.4829500997999
100
AcDbArc
 50
186.0914207808
 51
187.8064008291999
  0
ARC
  5
72
330
A
100
AcDbEntity
  8
CK_LEVEL_2
  6
Continuous
 62
     3
100
AcDbCircle
 10
3633.9364068139
 20
681.1369202482
 30
0.0
 40
2295.0941897724
100
AcDbArc
 50
187.8064008291999
 51
188.7968125488999
  0
ARC
  5
73
330
A
100
AcDbEntity
  8
CK_LEVEL_2
  6
Continuous
 62
     3
100
AcDbCircle
 10
2177.4570321256
 20
455.7449676113
 30
0.0
 40
821.2781560675001
100
AcDbArc
 50
188.7968125488999
 51
190.8855270546999
  0
ARC
  5
74
330
A
100
AcDbEntity
  8
CK_LEVEL_2
  6
Continuous
 62
     3
100
AcDbCircle
 10
2554.1755425042
 20
528.1908349917999
 30
0.0
 40
1204.8993751917
100
AcDbArc
 50
190.8855270546999
 51
192.6099395924
  0
ARC
  5
75
330
A
100
AcDbEntity
  8
CK_LEVEL_2
  6
Continuous
 62
     3
100
AcDbCircle
 10
1621.1112638935
 20
319.4562976648999
 30
0.0
 40
248.7722627781
100
AcDbArc
 50
192.6099395924
 51
197.69088962
  0
ARC
  5
76
330
A
100
AcDbEntity
  8
CK_LEVEL_2
  6
Continuous
 62
     3
100
AcDbCircle
 10
2119.9496679949
 20
478.5685472489999
 30
0.0
 40
772.3717866263999
100
AcDbArc
 50
197.69088962
 51
200.5738335952
  0
ARC
  5
77
330
A
100
AcDbEntity
  8
CK_LEVEL_2
  6
Continuous
 62
     3
100
AcDbCircle
 10
1640.3115431943
 20
298.5343788320999
 30
0.0
 40
260.0583741922999
100
AcDbArc
 50
200.5738335952
 51
207.5880813657
  0
ARC
  5
78
330
A
100
AcDbEntity
  8
CK_LEVEL_2
  6
Continuous
 62
     3
100
AcDbCircle
 10
1627.554187360799
 20
291.8683730813
 30
0.0
 40
245.6644254452999
100
AcDbArc
 50
207.5880813657
 51
214.8051577881
  0
ARC
  5
79
330
A
100
AcDbEntity
  8
CK_LEVEL_2
  6
Continuous
 62
     3
100
AcDbCircle
 10
1554.0850301104
 20
240.7961694997
 30
0.0
 40
156.1876851952999
100
AcDbArc
 50
214.8051577881
 51
223.8308606721
  0
ARC
  5
7A
330
A
100
AcDbEntity
  8
CK_LEVEL_2
  6
Continuous
 62
     3
100
AcDbCircle
 10
1582.9627452687
 20
268.5187760516
 30
0.0
 40
196.2184901685
100
AcDbArc
 50
223.8308606721
 51
231.8817279445
  0
ARC
  5
7B
330
A
100
AcDbEntity
  8
CK_LEVEL_2
  6
Continuous
 62
     3
100
AcDbCircle
 10
1578.157766385
 20
262.3947824072
 30
0.0
 40
188.4344603490999
100
AcDbArc
 50
231.8817279445
 51
238.8150253412999
  0
ARC
  5
7C
330
A
100
AcDbEntity
  8
CK_LEVEL_2
  6
Continuous
 62
     3
100
AcDbCircle
 10
1569.187806298599
 20
247.5748483513999
 30
0.0
 40
171.1113362263
100
AcDbArc
 50
238.8150253412999
 51
246.0912729723
  0
ARC
  5
7D
330
A
100
AcDbEntity
  8
CK_LEVEL_2
  6
Continuous
 62
     3
100
AcDbCircle
 10
1544.7754070179
 20
192.5077841565999
 30
0.0
 40
110.8755761027
100
AcDbArc
 50
246.0912729723
 51
255.2032377549
  0
ARC
  5
7E
330
A
100
AcDbEntity
  8
CK_LEVEL_2
  6
Continuous
 62
     3
100
AcDbCircle
 10
1525.4926237661
 20
119.5086761318
 30
0.0
 40
35.3726258136
100
AcDbArc
 50
255.2032377549
 51
271.3721424810001
  0
ARC
  5
7F
330
A
100
AcDbEntity
  8
CK_LEVEL_2
  6
Continuous
 62
     3
100
AcDbCircle
 10
1525.4445401108
 20
121.5160943434
 30
0.0
 40
37.3806198161
100
AcDbArc
 50
271.3721424810001
 51
286.7983717812999
  0
ARC
  5
80
330
A
100
AcDbEntity
  8
CK_LEVEL_2
  6
Continuous
 62
     3
100
AcDbCircle
 10
1502.291604504599
 20
198.2101935388
 30
0.0
 40
117.4933109366999
100
AcDbArc
 50
286.7983717812999
 51
295.4815680775999
  0
ARC
  5
81
330
A
100
AcDbEntity
  8
CK_LEVEL_2
  6
Continuous
 62
     3
100
AcDbCircle
 10
1471.4751131585
 20
262.8718360738
 30
0.0
 40
189.1228031463999
100
AcDbArc
 50
295.4815680775999
 51
302.2756443146
  0
ARC
  5
82
330
A
100
AcDbEntity
  8
CK_LEVEL_2
  6
Continuous
 62
     3
100
AcDbCircle
 10
1469.6909194876
 20
265.6968093859999
 30
0.0
 40
192.4640336486999
100
AcDbArc
 50
302.2756443146
 51
309.0104202113999
  0
ARC
  5
83
330
A
100
AcDbEntity
  8
CK_LEVEL_2
  6
Continuous
 62
     3
100
AcDbCircle
 10
1464.660827319399
 20
271.9061465573
 30
0.0
 40
200.4551346571
100
AcDbArc
 50
309.0104202113999
 51
316.9219559589
  0
ARC
  5
84
330
A
100
AcDbEntity
  8
CK_LEVEL_2
  6
Continuous
 62
     3
100
AcDbCircle
 10
1489.6192590646
 20
248.568392198
 30
0.0
 40
166.2853513141
100
AcDbArc
 50
316.9219559589
 51
325.6098287002
  0
ARC
  5
85
330
A
100
AcDbEntity
  8
CK_LEVEL_2
  6
Continuous
 62
     3
100
AcDbCircle
 10
1409.3584530436
 20
303.5038922232999
 30
0.0
 40
263.5463720066999
100
AcDbArc
 50
325.6098287002
 51
332.4119186342999
  0
ARC
  5
86
330
A
100
AcDbEntity
  8
CK_LEVEL_2
  6
Continuous
 62
     3
100
AcDbCircle
 10
1406.5024332379
 20
304.9962268964999
 30
0.0
 40
266.7687797878
100
AcDbArc
 50
332.4119186342999
 51
339.1727531282999
  0
ARC
  5
87
330
A
100
AcDbEntity
  8
CK_LEVEL_2
  6
Continuous
 62
     3
100
AcDbCircle
 10
942.6143517238999
 20
481.4632571710999
 30
0.0
 40
763.0879965673
100
AcDbArc
 50
339.1727531282999
 51
342.018570303
  0
ARC
  5
88
330
A
100
AcDbEntity
  8
CK_LEVEL_2
  6
Continuous
 62
     3
100
AcDbCircle
 10
1422.4802106217
 20
325.7173205112999
 30
0.0
 40
258.5802767832
100
AcDbArc
 50
342.018570303
 51
346.9082877975
  0
ARC
  5
89
330
A
100
AcDbEntity
  8
CK_LEVEL_2
  6
Continuous
 62
     3
100
AcDbCircle
 10
618.4609569522999
 20
512.6958670392999
 30
0.0
 40
1084.0546477559
100
AcDbArc
 50
346.9082877975
 51
348.7775419306
  0
ARC
  5
8A
330
A
100
AcDbEntity
  8
CK_LEVEL_2
  6
Continuous
 62
     3
100
AcDbCircle
 10
973.0214753891001
 20
442.3465578257
 30
0.0
 40
722.5823991101999
100
AcDbArc
 50
348.7775419306
 51
351.0671433446
  0
ARC
  5
8B
330
A
100
AcDbEntity
  8
CK_LEVEL_2
  6
Continuous
 62
     3
100
AcDbCircle
 10
-248.7506510295999
 20
634.3888462552
 30
0.0
 40
1959.3553651144
100
AcDbArc
 50
351.0671433446
 51
352.1935991707999
  0
ARC
  5
8C
330
A
100
AcDbEntity
  8
CK_LEVEL_2
  6
Continuous
 62
     3
100
AcDbCircle
 10
934.9136345954001
 20
472.1122909678999
 30
0.0
 40
764.6190672393999
100
AcDbArc
 50
352.1935991707999
 51
353.9968624499
  0
ARC
  5
8D
330
A
100
AcDbEntity
  8
CK_LEVEL_2
  6
Continuous
 62
     3
100
AcDbCircle
 10
381.7441702375999
 20
530.2833711795
 30
0.0
 40
1320.838745847499
100
AcDbArc
 50
353.9968624499
 51
355.601294645
  0
ARC
  5
8E
330
A
100
AcDbEntity
  8
CK_LEVEL_2
  6
Continuous
 62
     3
100
AcDbCircle
 10
932.3027645449998
 20
487.9327100789
 30
0.0
 40
768.65368243
100
AcDbArc
 50
355.601294645
 51
357.704545659
  0
ARC
  5
8F
330
A
100
AcDbEntity
  8
CK_LEVEL_2
  6
Continuous
 62
     3
100
AcDbCircle
 10
1317.8322103407
 20
472.4788838705999
 30
0.0
 40
382.8146300778
100
AcDbArc
 50
357.704545659
 51
358.5185428291
  0
ARC
  5
90
330
A
100
AcDbEntity
  8
CK_LEVEL_2
  6
Continuous
 62
     3
100
AcDbCircle
 10
1045.3502171805
 20
531.1590846058
 30
0.0
 40
656.6847053029
100
AcDbArc
 50
358.602735799
 51
360.0
  0
ARC
  5
91
330
A
100
AcDbEntity
  8
CK_LEVEL_2
  6
Continuous
 62
     3
100
AcDbCircle
 10
-1084.4490214328
 20
531.1590846058
 30
0.0
 40
2786.4839439161
100
AcDbArc
 50
0.0
 51
0.6782979191000001
  0
ARC
  5
92
330
A
100
AcDbEntity
  8
CK_LEVEL_1
  6
Continuous
 62
     3
100
AcDbCircle
 10
2557.714953271
 20
376.0794392523
 30
0.0
 40
472.9883459586999
100
AcDbArc
 50
181.9481696731999
 51
199.9108063311
  0
ARC
  5
93
330
A
100
AcDbEntity
  8
CK_LEVEL_1
  6
Continuous
 62
     3
100
AcDbCircle
 10
2267.3715083799
 20
272.5279329609
 30
0.0
 40
164.742300792
100
AcDbArc
 50
200.4383622269
 51
251.830481035
  0
ARC
  5
94
330
A
100
AcDbEntity
  8
CK_LEVEL_1
  6
Continuous
 62
     3
100
AcDbCircle
 10
723.0
 20
411.0
 30
0.0
 40
1717.1051220004
100
AcDbArc
 50
357.1625892958999
 51
360.6339984737
  0
ARC
  5
95
330
A
100
AcDbEntity
  8
CK_LEVEL_1
  6
Continuous
 62
     3
100
AcDbCircle
 10
2029.8774509804
 20
354.2189542483999
 30
0.0
 40
409.0969620972
100
AcDbArc
 50
338.3065298963999
 51
356.0446738991
  0
ARC
  5
96
330
A
100
AcDbEntity
  8
CK_LEVEL_1
  6
Continuous
 62
     3
100
AcDbCircle
 10
2267.6081081081
 20
263.2837837838
 30
0.0
 40
154.6272468351999
100
AcDbArc
 50
283.6123957817
 51
337.0538874754
  0
ARC
  5
97
330
A
100
AcDbEntity
  8
CK_LEVEL_1
  6
Continuous
 62
     3
100
AcDbCircle
 10
2264.2772727273
 20
239.9666666667
 30
0.0
 40
133.0354445493
100
AcDbArc
 50
248.722194138
 51
287.3727877632
  0
ENDSEC
  0
SECTION
  2
OBJECTS
  0
DICTIONARY
  5
19
330
0
100
AcDbDictionary
281
     1
  3
ACAD_GROUP
350
1A
  3
ACAD_LAYOUT
350
9C
  3
ACAD_MLINESTYLE
350
1B
  3
ACAD_PLOTSETTINGS
350
9D
  3
ACAD_PLOTSTYLENAME
350
9A
  3
AcDbVariableDictionary
350
A6
  3
ASE_INDEX_DICTIONARY
350
A3
  0
DICTIONARY
  5
1A
102
{ACAD_REACTORS
330
19
102
}
330
19
100
AcDbDictionary
281
     1
  0
DICTIONARY
  5
9C
102
{ACAD_REACTORS
330
19
102
}
330
19
100
AcDbDictionary
281
     1
  3
Layout1
350
9F
  3
Model
350
9E
  0
DICTIONARY
  5
1B
102
{ACAD_REACTORS
330
19
102
}
330
19
100
AcDbDictionary
281
     1
  3
STANDARD
350
1C
  0
DICTIONARY
  5
9D
102
{ACAD_REACTORS
330
19
102
}
330
19
100
AcDbDictionary
281
     1
  0
ACDBDICTIONARYWDFLT
  5
9A
102
{ACAD_REACTORS
330
19
102
}
330
19
100
AcDbDictionary
281
     1
  3
Normal
350
9B
100
AcDbDictionaryWithDefault
340
9B
  0
DICTIONARY
  5
A6
102
{ACAD_REACTORS
330
19
102
}
330
19
100
AcDbDictionary
281
     1
  3
DIMASSOC
350
A7
  0
DICTIONARY
  5
A3
102
{ACAD_REACTORS
330
19
102
}
330
19
100
AcDbDictionary
281
     1
  3
ASEBlockHierarchyIndexRecord
350
A5
1001
DCO15
1040
1757741492.131
  0
LAYOUT
  5
9F
102
{ACAD_REACTORS
330
9C
102
}
330
9C
100
AcDbPlotSettings
  1

  2
Canon MP160 Printer
  4

  6

 40
0.0
 41
0.0
 42
0.0
 43
0.0
 44
0.0
 45
0.0
 46
0.0
 47
0.0
 48
0.0
 49
0.0
140
0.0
141
0.0
142
1.0
143
1.0
 70
   688
 72
     0
 73
     0
 74
     5
  7

 75
    16
147
1.0
148
0.0
149
0.0
100
AcDbLayout
  1
Layout1
 70
     0
 71
     1
 10
0.0
 20
0.0
 11
12.0
 21
9.0
 12
0.0
 22
0.0
 32
0.0
 14
1.000000000000000E+20
 24
1.000000000000000E+20
 34
1.000000000000000E+20
 15
-1.000000000000000E+20
 25
-1.000000000000000E+20
 35
-1.000000000000000E+20
146
0.0
 13
0.0
 23
0.0
 33
0.0
 16
1.0
 26
0.0
 36
0.0
 17
0.0
 27
1.0
 37
0.0
 76
     0
330
B
  0
LAYOUT
  5
9E
102
{ACAD_REACTORS
330
9C
102
}
330
9C
100
AcDbPlotSettings
  1

  2
Canon MP160 Printer
  4

  6

 40
0.0
 41
0.0
 42
0.0
 43
0.0
 44
0.0
 45
0.0
 46
0.0
 47
0.0
 48
0.0
 49
0.0
140
0.0
141
0.0
142
1.0
143
1.0
 70
  1712
 72
     0
 73
     0
 74
     0
  7

 75
     0
147
1.0
148
0.0
149
0.0
100
AcDbLayout
  1
Model
 70
     1
 71
     0
 10
0.0
 20
0.0
 11
12.0
 21
9.0
 12
0.0
 22
0.0
 32
0.0
 14
0.0
 24
0.0
 34
0.0
 15
0.0
 25
0.0
 35
0.0
146
0.0
 13
0.0
 23
0.0
 33
0.0
 16
1.0
 26
0.0
 36
0.0
 17
0.0
 27
1.0
 37
0.0
 76
     0
330
A
  0
MLINESTYLE
  5
1C
102
{ACAD_REACTORS
330
1B
102
}
330
1B
100
AcDbMlineStyle
  2
STANDARD
 70
     0
  3

 62
     0
 51
90.0
 52
90.0
 71
     2
 49
0.5
 62
   256
  6
BYLAYER
 49
-0.5
 62
   256
  6
BYLAYER
  0
ACDBPLACEHOLDER
  5
9B
102
{ACAD_REACTORS
330
9A
102
}
330
9A
  0
DICTIONARYVAR
  5
A7
102
{ACAD_REACTORS
330
A6
102
}
330
A6
100
DictionaryVariables
280
     0
  1
1
  0
XRECORD
  5
A5
102
{ACAD_REACTORS
330
A3
102
}
330
A3
100
AcDbXrecord
280
     1
  0
ENDSEC
  0
EOF
