  0
SECTION
  2
HEADER
  9
$ACADVER
  1
AC1015
  9
$ACADMAINTVER
 70
    13
  9
$DWGCODEPAGE
  3
ANSI_1252
  9
$INSBASE
 10
0.0
 20
0.0
 30
0.0
  9
$EXTMIN
 10
0.0000004868018095
 20
-0.0000008757451253
 30
0.0
  9
$EXTMAX
 10
526.0000004868017
 20
572.0002880778563
 30
0.0
  9
$LIMMIN
 10
0.0
 20
0.0
  9
$LIMMAX
 10
420.0
 20
297.0
  9
$ORTHOMODE
 70
     0
  9
$REGENMODE
 70
     1
  9
$FILLMODE
 70
     1
  9
$QTEXTMODE
 70
     0
  9
$MIRRTEXT
 70
     1
  9
$LTSCALE
 40
1.0
  9
$ATTMODE
 70
     1
  9
$TEXTSIZE
 40
2.5
  9
$TRACEWID
 40
1.0
  9
$TEXTSTYLE
  7
Standard
  9
$CLAYER
  8
0
  9
$CELTYPE
  6
ByLayer
  9
$CECOLOR
 62
   256
  9
$CELTSCALE
 40
1.0
  9
$DISPSILH
 70
     0
  9
$DIMSCALE
 40
1.0
  9
$DIMASZ
 40
2.5
  9
$DIMEXO
 40
0.625
  9
$DIMDLI
 40
3.75
  9
$DIMRND
 40
0.0
  9
$DIMDLE
 40
0.0
  9
$DIMEXE
 40
1.25
  9
$DIMTP
 40
0.0
  9
$DIMTM
 40
0.0
  9
$DIMTXT
 40
2.5
  9
$DIMCEN
 40
2.5
  9
$DIMTSZ
 40
0.0
  9
$DIMTOL
 70
     0
  9
$DIMLIM
 70
     0
  9
$DIMTIH
 70
     0
  9
$DIMTOH
 70
     0
  9
$DIMSE1
 70
     0
  9
$DIMSE2
 70
     0
  9
$DIMTAD
 70
     1
  9
$DIMZIN
 70
     8
  9
$DIMBLK
  1

  9
$DIMASO
 70
     1
  9
$DIMSHO
 70
     1
  9
$DIMPOST
  1

  9
$DIMAPOST
  1

  9
$DIMALT
 70
     0
  9
$DIMALTD
 70
     3
  9
$DIMALTF
 40
0.03937007874016
  9
$DIMLFAC
 40
1.0
  9
$DIMTOFL
 70
     1
  9
$DIMTVP
 40
0.0
  9
$DIMTIX
 70
     0
  9
$DIMSOXD
 70
     0
  9
$DIMSAH
 70
     0
  9
$DIMBLK1
  1

  9
$DIMBLK2
  1

  9
$DIMSTYLE
  2
ISO-25
  9
$DIMCLRD
 70
     0
  9
$DIMCLRE
 70
     0
  9
$DIMCLRT
 70
     0
  9
$DIMTFAC
 40
1.0
  9
$DIMGAP
 40
0.625
  9
$DIMJUST
 70
     0
  9
$DIMSD1
 70
     0
  9
$DIMSD2
 70
     0
  9
$DIMTOLJ
 70
     0
  9
$DIMTZIN
 70
     8
  9
$DIMALTZ
 70
     0
  9
$DIMALTTZ
 70
     0
  9
$DIMUPT
 70
     0
  9
$DIMDEC
 70
     2
  9
$DIMTDEC
 70
     2
  9
$DIMALTU
 70
     2
  9
$DIMALTTD
 70
     3
  9
$DIMTXSTY
  7
Standard
  9
$DIMAUNIT
 70
     0
  9
$DIMADEC
 70
     0
  9
$DIMALTRND
 40
0.0
  9
$DIMAZIN
 70
     0
  9
$DIMDSEP
 70
    44
  9
$DIMATFIT
 70
     3
  9
$DIMFRAC
 70
     0
  9
$DIMLDRBLK
  1

  9
$DIMLUNIT
 70
     2
  9
$DIMLWD
 70
    -2
  9
$DIMLWE
 70
    -2
  9
$DIMTMOVE
 70
     0
  9
$LUNITS
 70
     2
  9
$LUPREC
 70
     4
  9
$SKETCHINC
 40
1.0
  9
$FILLETRAD
 40
10.0
  9
$AUNITS
 70
     0
  9
$AUPREC
 70
     0
  9
$MENU
  1
.
  9
$ELEVATION
 40
0.0
  9
$PELEVATION
 40
0.0
  9
$THICKNESS
 40
0.0
  9
$LIMCHECK
 70
     0
  9
$CHAMFERA
 40
10.0
  9
$CHAMFERB
 40
10.0
  9
$CHAMFERC
 40
20.0
  9
$CHAMFERD
 40
0.0
  9
$SKPOLY
 70
     0
  9
$TDCREATE
 40
2456225.439501539
  9
$TDUCREATE
 40
2456225.002001539
  9
$TDUPDATE
 40
2456257.944015486
  9
$TDUUPDATE
 40
2456257.506515486
  9
$TDINDWG
 40
0.0028335880
  9
$TDUSRTIMER
 40
0.0028335880
  9
$USRTIMER
 70
     1
  9
$ANGBASE
 50
0.0
  9
$ANGDIR
 70
     0
  9
$PDMODE
 70
     0
  9
$PDSIZE
 40
0.0
  9
$PLINEWID
 40
0.0
  9
$SPLFRAME
 70
     0
  9
$SPLINETYPE
 70
     6
  9
$SPLINESEGS
 70
     8
  9
$HANDSEED
  5
116
  9
$SURFTAB1
 70
     6
  9
$SURFTAB2
 70
     6
  9
$SURFTYPE
 70
     6
  9
$SURFU
 70
     6
  9
$SURFV
 70
     6
  9
$UCSBASE
  2

  9
$UCSNAME
  2

  9
$UCSORG
 10
0.0
 20
0.0
 30
0.0
  9
$UCSXDIR
 10
1.0
 20
0.0
 30
0.0
  9
$UCSYDIR
 10
0.0
 20
1.0
 30
0.0
  9
$UCSORTHOREF
  2

  9
$UCSORTHOVIEW
 70
     0
  9
$UCSORGTOP
 10
0.0
 20
0.0
 30
0.0
  9
$UCSORGBOTTOM
 10
0.0
 20
0.0
 30
0.0
  9
$UCSORGLEFT
 10
0.0
 20
0.0
 30
0.0
  9
$UCSORGRIGHT
 10
0.0
 20
0.0
 30
0.0
  9
$UCSORGFRONT
 10
0.0
 20
0.0
 30
0.0
  9
$UCSORGBACK
 10
0.0
 20
0.0
 30
0.0
  9
$PUCSBASE
  2

  9
$PUCSNAME
  2

  9
$PUCSORG
 10
0.0
 20
0.0
 30
0.0
  9
$PUCSXDIR
 10
1.0
 20
0.0
 30
0.0
  9
$PUCSYDIR
 10
0.0
 20
1.0
 30
0.0
  9
$PUCSORTHOREF
  2

  9
$PUCSORTHOVIEW
 70
     0
  9
$PUCSORGTOP
 10
0.0
 20
0.0
 30
0.0
  9
$PUCSORGBOTTOM
 10
0.0
 20
0.0
 30
0.0
  9
$PUCSORGLEFT
 10
0.0
 20
0.0
 30
0.0
  9
$PUCSORGRIGHT
 10
0.0
 20
0.0
 30
0.0
  9
$PUCSORGFRONT
 10
0.0
 20
0.0
 30
0.0
  9
$PUCSORGBACK
 10
0.0
 20
0.0
 30
0.0
  9
$USERI1
 70
     0
  9
$USERI2
 70
     0
  9
$USERI3
 70
     0
  9
$USERI4
 70
     0
  9
$USERI5
 70
     0
  9
$USERR1
 40
0.0
  9
$USERR2
 40
0.0
  9
$USERR3
 40
0.0
  9
$USERR4
 40
0.0
  9
$USERR5
 40
0.0
  9
$WORLDVIEW
 70
     1
  9
$SHADEDGE
 70
     3
  9
$SHADEDIF
 70
    70
  9
$TILEMODE
 70
     1
  9
$MAXACTVP
 70
    64
  9
$PINSBASE
 10
0.0
 20
0.0
 30
0.0
  9
$PLIMCHECK
 70
     0
  9
$PEXTMIN
 10
1.000000000000000E+20
 20
1.000000000000000E+20
 30
1.000000000000000E+20
  9
$PEXTMAX
 10
-1.000000000000000E+20
 20
-1.000000000000000E+20
 30
-1.000000000000000E+20
  9
$PLIMMIN
 10
0.0
 20
0.0
  9
$PLIMMAX
 10
420.0
 20
297.0
  9
$UNITMODE
 70
     0
  9
$VISRETAIN
 70
     1
  9
$PLINEGEN
 70
     0
  9
$PSLTSCALE
 70
     1
  9
$TREEDEPTH
 70
  3020
  9
$CMLSTYLE
  2
Standard
  9
$CMLJUST
 70
     0
  9
$CMLSCALE
 40
20.0
  9
$PROXYGRAPHICS
 70
     1
  9
$MEASUREMENT
 70
     1
  9
$CELWEIGHT
370
    -1
  9
$ENDCAPS
280
     0
  9
$JOINSTYLE
280
     0
  9
$LWDISPLAY
290
     0
  9
$INSUNITS
 70
     4
  9
$HYPERLINKBASE
  1

  9
$STYLESHEET
  1

  9
$XEDIT
290
     1
  9
$CEPSNTYPE
380
     0
  9
$PSTYLEMODE
290
     1
  9
$FINGERPRINTGUID
  2
{980D071A-C52A-48F0-B764-44478E7E2F23}
  9
$VERSIONGUID
  2
{D1CC686A-8498-44E0-B269-9C6F38CE83E1}
  9
$EXTNAMES
290
     1
  9
$PSVPSCALE
 40
0.0
  9
$OLESTARTUP
290
     0
  0
ENDSEC
  0
SECTION
  2
CLASSES
  0
CLASS
  1
ACDBDICTIONARYWDFLT
  2
AcDbDictionaryWithDefault
  3
AutoCAD 2000
 90
        0
280
     0
281
     0
  0
CLASS
  1
ACDBPLACEHOLDER
  2
AcDbPlaceHolder
  3
AutoCAD 2000
 90
        0
280
     0
281
     0
  0
CLASS
  1
LAYOUT
  2
AcDbLayout
  3
AutoCAD 2000
 90
        0
280
     0
281
     0
  0
CLASS
  1
DICTIONARYVAR
  2
AcDbDictionaryVar
  3
AutoCAD 2000
 90
        0
280
     0
281
     0
  0
ENDSEC
  0
SECTION
  2
TABLES
  0
TABLE
  2
VPORT
  5
8
330
0
100
AcDbSymbolTable
 70
     2
  0
VPORT
  5
115
330
8
100
AcDbSymbolTableRecord
100
AcDbViewportTableRecord
  2
*Active
 70
     0
 10
0.0
 20
0.0
 11
1.0
 21
1.0
 12
223.2704916520781
 22
599.8162246080108
 13
0.0
 23
0.0
 14
10.0
 24
10.0
 15
10.0
 25
10.0
 16
0.0
 26
0.0
 36
1.0
 17
0.0
 27
0.0
 37
0.0
 40
1282.266629789894
 41
1.271317829457364
 42
50.0
 43
0.0
 44
0.0
 50
0.0
 51
0.0
 71
     0
 72
   100
 73
     1
 74
     3
 75
     0
 76
     0
 77
     0
 78
     0
281
     0
 65
     1
110
0.0
120
0.0
130
0.0
111
1.0
121
0.0
131
0.0
112
0.0
122
1.0
132
0.0
 79
     0
146
0.0
  0
ENDTAB
  0
TABLE
  2
LTYPE
  5
5
330
0
100
AcDbSymbolTable
 70
     1
  0
LTYPE
  5
14
330
5
100
AcDbSymbolTableRecord
100
AcDbLinetypeTableRecord
  2
ByBlock
 70
     0
  3

 72
    65
 73
     0
 40
0.0
  0
LTYPE
  5
15
330
5
100
AcDbSymbolTableRecord
100
AcDbLinetypeTableRecord
  2
ByLayer
 70
     0
  3

 72
    65
 73
     0
 40
0.0
  0
LTYPE
  5
16
330
5
100
AcDbSymbolTableRecord
100
AcDbLinetypeTableRecord
  2
Continuous
 70
     0
  3
Solid line
 72
    65
 73
     0
 40
0.0
  0
ENDTAB
  0
TABLE
  2
LAYER
  5
2
330
0
100
AcDbSymbolTable
 70
     3
  0
LAYER
  5
10
330
2
100
AcDbSymbolTableRecord
100
AcDbLayerTableRecord
  2
0
 70
     0
 62
     7
  6
Continuous
370
    -3
390
F
  0
LAYER
  5
2B
330
2
100
AcDbSymbolTableRecord
100
AcDbLayerTableRecord
  2
CK_LEVEL_1
 70
     0
 62
     7
  6
Continuous
370
    -3
390
F
  0
LAYER
  5
2C
330
2
100
AcDbSymbolTableRecord
100
AcDbLayerTableRecord
  2
CK_LEVEL_2
 70
     0
 62
     7
  6
Continuous
370
    -3
390
F
  0
ENDTAB
  0
TABLE
  2
STYLE
  5
3
330
0
100
AcDbSymbolTable
 70
     1
  0
STYLE
  5
11
330
3
100
AcDbSymbolTableRecord
100
AcDbTextStyleTableRecord
  2
Standard
 70
     0
 40
0.0
 41
1.0
 50
0.0
 71
     0
 42
2.5
  3
txt
  4

  0
ENDTAB
  0
TABLE
  2
VIEW
  5
6
330
0
100
AcDbSymbolTable
 70
     0
  0
ENDTAB
  0
TABLE
  2
UCS
  5
7
330
0
100
AcDbSymbolTable
 70
     0
  0
ENDTAB
  0
TABLE
  2
APPID
  5
9
330
0
100
AcDbSymbolTable
 70
     2
  0
APPID
  5
12
330
9
100
AcDbSymbolTableRecord
100
AcDbRegAppTableRecord
  2
ACAD
 70
     0
  0
APPID
  5
8C
330
9
100
AcDbSymbolTableRecord
100
AcDbRegAppTableRecord
  2
DCO15
 70
     0
  0
ENDTAB
  0
TABLE
  2
DIMSTYLE
  5
A
330
0
100
AcDbSymbolTable
 70
     2
100
AcDbDimStyleTable
 71
     0
  0
DIMSTYLE
105
27
330
A
100
AcDbSymbolTableRecord
100
AcDbDimStyleTableRecord
  2
ISO-25
 70
     0
 41
2.5
 42
0.625
 43
3.75
 44
1.25
 73
     0
 74
     0
 77
     1
 78
     8
140
2.5
141
2.5
143
0.03937007874016
147
0.625
171
     3
172
     1
271
     2
272
     2
274
     3
278
    44
283
     0
284
     8
340
11
  0
DIMSTYLE
105
2D
330
A
100
AcDbSymbolTableRecord
100
AcDbDimStyleTableRecord
  2
STANDARD
 70
     0
340
11
  0
ENDTAB
  0
TABLE
  2
BLOCK_RECORD
  5
1
330
0
100
AcDbSymbolTable
 70
     1
  0
BLOCK_RECORD
  5
1F
330
1
100
AcDbSymbolTableRecord
100
AcDbBlockTableRecord
  2
*Model_Space
340
22
  0
BLOCK_RECORD
  5
1B
330
1
100
AcDbSymbolTableRecord
100
AcDbBlockTableRecord
  2
*Paper_Space
340
1E
  0
BLOCK_RECORD
  5
23
330
1
100
AcDbSymbolTableRecord
100
AcDbBlockTableRecord
  2
*Paper_Space0
340
26
  0
ENDTAB
  0
ENDSEC
  0
SECTION
  2
BLOCKS
  0
BLOCK
  5
20
330
1F
100
AcDbEntity
  8
0
100
AcDbBlockBegin
  2
*Model_Space
 70
     0
 10
0.0
 20
0.0
 30
0.0
  3
*Model_Space
  1

  0
ENDBLK
  5
21
330
1F
100
AcDbEntity
  8
0
100
AcDbBlockEnd
  0
BLOCK
  5
1C
330
1B
100
AcDbEntity
 67
     1
  8
0
100
AcDbBlockBegin
  2
*Paper_Space
 70
     0
 10
0.0
 20
0.0
 30
0.0
  3
*Paper_Space
  1

  0
ENDBLK
  5
1D
330
1B
100
AcDbEntity
 67
     1
  8
0
100
AcDbBlockEnd
  0
BLOCK
  5
24
330
23
100
AcDbEntity
  8
0
100
AcDbBlockBegin
  2
*Paper_Space0
 70
     0
 10
0.0
 20
0.0
 30
0.0
  3
*Paper_Space0
  1

  0
ENDBLK
  5
25
330
23
100
AcDbEntity
  8
0
100
AcDbBlockEnd
  0
ENDSEC
  0
SECTION
  2
ENTITIES
  0
LINE
  5
E4
330
1F
100
AcDbEntity
  8
CK_LEVEL_1
  6
Continuous
 62
     3
100
AcDbLine
 10
0.0000004868018095
 20
571.9999991242549
 30
0.0
 11
91.00000048680181
 21
571.9999991242549
 31
0.0
  0
LINE
  5
E5
330
1F
100
AcDbEntity
  8
CK_LEVEL_1
  6
Continuous
 62
     3
100
AcDbLine
 10
0.0000004868018095
 20
-0.0000008757451253
 30
0.0
 11
526.0000004868017
 21
-0.0000008757451253
 31
0.0
  0
LINE
  5
E6
330
1F
100
AcDbEntity
  8
CK_LEVEL_1
  6
Continuous
 62
     3
100
AcDbLine
 10
0.0000004868018095
 20
-0.0000008757451253
 30
0.0
 11
0.0000004868018095
 21
571.9999991242549
 31
0.0
  0
ARC
  5
E7
330
1F
100
AcDbEntity
  8
CK_LEVEL_2
  6
Continuous
 62
     3
100
AcDbCircle
 10
-317.2253085206982
 20
489.3170629006548
 30
0.0
 40
763.0879965673
100
AcDbArc
 50
339.172753128299
 51
342.0185703030002
  0
ARC
  5
E8
330
1F
100
AcDbEntity
  8
CK_LEVEL_2
  6
Continuous
 62
     3
100
AcDbCircle
 10
860.1100077503019
 20
486.4223529785548
 30
0.0
 40
772.3717866263999
100
AcDbArc
 50
197.6908896199996
 51
200.5738335951982
  0
LINE
  5
E9
330
1F
100
AcDbEntity
  8
CK_LEVEL_1
  6
Continuous
 62
     3
100
AcDbLine
 10
526.0000004868017
 20
-0.0000008757451253
 30
0.0
 11
526.0000004868017
 21
571.9999991242549
 31
0.0
  0
ARC
  5
EA
330
1F
100
AcDbEntity
  8
CK_LEVEL_2
  6
Continuous
 62
     3
100
AcDbCircle
 10
146.6627729933018
 20
312.8500326260549
 30
0.0
 40
266.7687797878
100
AcDbArc
 50
332.4119186343022
 51
339.172753128299
  0
ARC
  5
EB
330
1F
100
AcDbEntity
  8
CK_LEVEL_2
  6
Continuous
 62
     3
100
AcDbCircle
 10
323.1230850241018
 20
276.3725817811549
 30
0.0
 40
196.2184901685
100
AcDbArc
 50
223.830860672104
 51
231.8817279445012
  0
ARC
  5
EC
330
1F
100
AcDbEntity
  8
CK_LEVEL_2
  6
Continuous
 62
     3
100
AcDbCircle
 10
367.7145271162016
 20
299.7221788108548
 30
0.0
 40
245.6644254452999
100
AcDbArc
 50
207.5880813656977
 51
214.8051577880978
  0
ARC
  5
ED
330
1F
100
AcDbEntity
  8
CK_LEVEL_2
  6
Continuous
 62
     3
100
AcDbCircle
 10
294.2453698658018
 20
248.6499752292548
 30
0.0
 40
156.1876851952999
100
AcDbArc
 50
214.8051577880978
 51
223.830860672104
  0
ARC
  5
EE
330
1F
100
AcDbEntity
  8
CK_LEVEL_2
  6
Continuous
 62
     3
100
AcDbCircle
 10
380.4718829497017
 20
306.3881845616549
 30
0.0
 40
260.0583741922999
100
AcDbArc
 50
200.5738335951982
 51
207.5880813656977
  0
ARC
  5
EF
330
1F
100
AcDbEntity
  8
CK_LEVEL_2
  6
Continuous
 62
     3
100
AcDbCircle
 10
204.8211670748016
 20
279.7599522868549
 30
0.0
 40
200.4551346571
100
AcDbArc
 50
309.0104202113954
 51
316.9219559589029
  0
ARC
  5
F0
330
1F
100
AcDbEntity
  8
CK_LEVEL_2
  6
Continuous
 62
     3
100
AcDbCircle
 10
211.6354529139018
 20
270.7256418033549
 30
0.0
 40
189.1228031464
100
AcDbArc
 50
295.4815680775975
 51
302.2756443145961
  0
ARC
  5
F1
330
1F
100
AcDbEntity
  8
CK_LEVEL_2
  6
Continuous
 62
     3
100
AcDbCircle
 10
284.9357467733018
 20
200.3615898861548
 30
0.0
 40
110.8755761027
100
AcDbArc
 50
246.0912729723056
 51
255.2032377548938
  0
ARC
  5
F2
330
1F
100
AcDbEntity
  8
CK_LEVEL_2
  6
Continuous
 62
     3
100
AcDbCircle
 10
309.3481460540017
 20
255.4286540809548
 30
0.0
 40
171.1113362263
100
AcDbArc
 50
238.8150253413037
 51
246.0912729723056
  0
ARC
  5
F3
330
1F
100
AcDbEntity
  8
CK_LEVEL_2
  6
Continuous
 62
     3
100
AcDbCircle
 10
318.3181061404018
 20
270.2485881367548
 30
0.0
 40
188.4344603490999
100
AcDbArc
 50
231.8817279445012
 51
238.8150253413037
  0
ARC
  5
F4
330
1F
100
AcDbEntity
  8
CK_LEVEL_2
  6
Continuous
 62
     3
100
AcDbCircle
 10
265.6048798662018
 20
129.3699000729548
 30
0.0
 40
37.3806198161
100
AcDbArc
 50
271.3721424810044
 51
286.7983717812991
  0
ARC
  5
F5
330
1F
100
AcDbEntity
  8
CK_LEVEL_2
  6
Continuous
 62
     3
100
AcDbCircle
 10
265.6529635215017
 20
127.3624818613548
 30
0.0
 40
35.3726258136
100
AcDbArc
 50
255.2032377548938
 51
271.3721424810044
  0
ARC
  5
F6
330
1F
100
AcDbEntity
  8
CK_LEVEL_2
  6
Continuous
 62
     3
100
AcDbCircle
 10
242.4519442600017
 20
206.0639992683548
 30
0.0
 40
117.4933109366999
100
AcDbArc
 50
286.7983717812991
 51
295.4815680775975
  0
ARC
  5
F7
330
1F
100
AcDbEntity
  8
CK_LEVEL_2
  6
Continuous
 62
     3
100
AcDbCircle
 10
209.8512592430017
 20
273.5506151155548
 30
0.0
 40
192.4640336486999
100
AcDbArc
 50
302.2756443145961
 51
309.0104202113954
  0
ARC
  5
F8
330
1F
100
AcDbEntity
  8
CK_LEVEL_2
  6
Continuous
 62
     3
100
AcDbCircle
 10
149.5187927990018
 20
311.3576979528549
 30
0.0
 40
263.5463720066999
100
AcDbArc
 50
325.6098287001981
 51
332.4119186343022
  0
ARC
  5
F9
330
1F
100
AcDbEntity
  8
CK_LEVEL_2
  6
Continuous
 62
     3
100
AcDbCircle
 10
229.7795988200018
 20
256.4221979275548
 30
0.0
 40
166.2853513141
100
AcDbArc
 50
316.9219559589029
 51
325.6098287001981
  0
ARC
  5
FA
330
1F
100
AcDbEntity
  8
CK_LEVEL_2
  6
Continuous
 62
     3
100
AcDbCircle
 10
1313.444313496902
 20
529.7628126302548
 30
0.0
 40
1222.8487069587
100
AcDbArc
 50
184.3987053549997
 51
186.0914207807995
  0
ARC
  5
FB
330
1F
100
AcDbEntity
  8
CK_LEVEL_2
  6
Continuous
 62
     3
100
AcDbCircle
 10
917.6173718810018
 20
463.5987733408549
 30
0.0
 40
821.2781560675001
100
AcDbArc
 50
188.7968125489009
 51
190.8855270547006
  0
ARC
  5
FC
330
1F
100
AcDbEntity
  8
CK_LEVEL_2
  6
Continuous
 62
     3
100
AcDbCircle
 10
361.2716036489018
 20
327.3101033944548
 30
0.0
 40
248.7722627781
100
AcDbArc
 50
192.6099395924001
 51
197.6908896199996
  0
ARC
  5
FD
330
1F
100
AcDbEntity
  8
CK_LEVEL_2
  6
Continuous
 62
     3
100
AcDbCircle
 10
1294.335882259602
 20
536.0446407213548
 30
0.0
 40
1204.8993751917
100
AcDbArc
 50
190.8855270547006
 51
192.6099395924001
  0
ARC
  5
FE
330
1F
100
AcDbEntity
  8
CK_LEVEL_2
  6
Continuous
 62
     3
100
AcDbCircle
 10
858.6609148201018
 20
481.2293619477549
 30
0.0
 40
765.4829500997999
100
AcDbArc
 50
186.0914207807995
 51
187.8064008291995
  0
ARC
  5
FF
330
1F
100
AcDbEntity
  8
CK_LEVEL_2
  6
Continuous
 62
     3
100
AcDbCircle
 10
2374.096746569301
 20
688.9907259777548
 30
0.0
 40
2295.0941897724
100
AcDbArc
 50
187.8064008291995
 51
188.7968125489009
  0
LINE
  5
100
330
1F
100
AcDbEntity
  8
CK_LEVEL_2
  6
Continuous
 62
     3
100
AcDbLine
 10
91.00000048680181
 20
522.9999991242549
 30
0.0
 11
92.32077874910169
 21
470.4356204933549
 31
0.0
  0
ARC
  5
101
330
1F
100
AcDbEntity
  8
CK_LEVEL_2
  6
Continuous
 62
     3
100
AcDbCircle
 10
883.9563562477019
 20
496.7252774571549
 30
0.0
 40
792.0919494349
100
AcDbArc
 50
182.2954543410001
 51
184.3987053549997
  0
ARC
  5
102
330
1F
100
AcDbEntity
  8
CK_LEVEL_2
  6
Continuous
 62
     3
100
AcDbCircle
 10
475.0074508761017
 20
480.3326896000548
 30
0.0
 40
382.8146300764
100
AcDbArc
 50
181.4814571708999
 51
182.2954543410001
  0
ARC
  5
103
330
1F
100
AcDbEntity
  8
CK_LEVEL_2
  6
Continuous
 62
     3
100
AcDbCircle
 10
2877.288682651501
 20
539.0128903353549
 30
0.0
 40
2786.4839439166
100
AcDbArc
 50
179.3217020808999
 51
180.0
  0
ARC
  5
104
330
1F
100
AcDbEntity
  8
CK_LEVEL_2
  6
Continuous
 62
     3
100
AcDbCircle
 10
747.4894440378018
 20
539.0128903353549
 30
0.0
 40
656.684705303
100
AcDbArc
 50
180.0
 51
181.3972642010001
  0
ARC
  5
105
330
1F
100
AcDbEntity
  8
CK_LEVEL_2
  6
Continuous
 62
     3
100
AcDbCircle
 10
-878.0954900069982
 20
538.1371769090549
 30
0.0
 40
1320.8387458475
100
AcDbArc
 50
353.9968624499
 51
355.6012946450001
  0
ARC
  5
106
330
1F
100
AcDbEntity
  8
CK_LEVEL_2
  6
Continuous
 62
     3
100
AcDbCircle
 10
-286.8181848554982
 20
450.2003635552549
 30
0.0
 40
722.5823991101999
100
AcDbArc
 50
348.7775419306004
 51
351.0671433446006
  0
ARC
  5
107
330
1F
100
AcDbEntity
  8
CK_LEVEL_2
  6
Continuous
 62
     3
100
AcDbCircle
 10
162.6405503771018
 20
333.5711262408548
 30
0.0
 40
258.5802767832
100
AcDbArc
 50
342.0185703030002
 51
346.9082877974985
  0
ARC
  5
108
330
1F
100
AcDbEntity
  8
CK_LEVEL_2
  6
Continuous
 62
     3
100
AcDbCircle
 10
-641.3787032922982
 20
520.5496727688548
 30
0.0
 40
1084.0546477559
100
AcDbArc
 50
346.9082877974985
 51
348.7775419306004
  0
ARC
  5
109
330
1F
100
AcDbEntity
  8
CK_LEVEL_2
  6
Continuous
 62
     3
100
AcDbCircle
 10
-1508.590311274198
 20
642.2426519847548
 30
0.0
 40
1959.355365114399
100
AcDbArc
 50
351.0671433446006
 51
352.1935991708003
  0
ARC
  5
10A
330
1F
100
AcDbEntity
  8
CK_LEVEL_2
  6
Continuous
 62
     3
100
AcDbCircle
 10
-324.9260256491982
 20
479.9660966974548
 30
0.0
 40
764.6190672393999
100
AcDbArc
 50
352.1935991708003
 51
353.9968624499
  0
LINE
  5
10B
330
1F
100
AcDbEntity
  8
CK_LEVEL_2
  6
Continuous
 62
     3
100
AcDbLine
 10
440.6792222245017
 20
470.4356204933549
 30
0.0
 11
442.0000004868017
 21
522.9999991242549
 31
0.0
  0
ARC
  5
10C
330
1F
100
AcDbEntity
  8
CK_LEVEL_2
  6
Continuous
 62
     3
100
AcDbCircle
 10
-327.5368956995983
 20
495.7865158084548
 30
0.0
 40
768.65368243
100
AcDbArc
 50
355.6012946450001
 51
357.7045456589999
  0
ARC
  5
10D
330
1F
100
AcDbEntity
  8
CK_LEVEL_2
  6
Continuous
 62
     3
100
AcDbCircle
 10
57.9925500961017
 20
480.3326896001548
 30
0.0
 40
382.8146300778
100
AcDbArc
 50
357.7045456589999
 51
358.5185428291
  0
LINE
  5
10E
330
1F
100
AcDbEntity
  8
CK_LEVEL_1
  6
Continuous
 62
     3
100
AcDbLine
 10
442.0000004868017
 20
571.9999991242549
 30
0.0
 11
526.0000004868017
 21
571.9999991242549
 31
0.0
  0
ARC
  5
10F
330
1F
100
AcDbEntity
  8
CK_LEVEL_2
  6
Continuous
 62
     3
100
AcDbCircle
 10
-2344.288681677398
 20
539.0128903353549
 30
0.0
 40
2786.4839439161
100
AcDbArc
 50
0.0
 51
0.678297919100039
  0
ARC
  5
110
330
1F
100
AcDbEntity
  8
CK_LEVEL_2
  6
Continuous
 62
     3
100
AcDbCircle
 10
-214.4894430640981
 20
539.0128903353549
 30
0.0
 40
656.6847053029
100
AcDbArc
 50
358.6027357989998
 51
0.0
  0
ENDSEC
  0
SECTION
  2
OBJECTS
  0
DICTIONARY
  5
C
330
0
100
AcDbDictionary
281
     1
  3
ACAD_GROUP
350
D
  3
ACAD_LAYOUT
350
1A
  3
ACAD_MLINESTYLE
350
17
  3
ACAD_PLOTSETTINGS
350
19
  3
ACAD_PLOTSTYLENAME
350
E
  3
AcDbVariableDictionary
350
8F
  3
ASE_INDEX_DICTIONARY
350
8B
  0
DICTIONARY
  5
D
102
{ACAD_REACTORS
330
C
102
}
330
C
100
AcDbDictionary
281
     1
  0
DICTIONARY
  5
1A
102
{ACAD_REACTORS
330
C
102
}
330
C
100
AcDbDictionary
281
     1
  3
Layout1
350
1E
  3
Layout2
350
26
  3
Model
350
22
  0
DICTIONARY
  5
17
102
{ACAD_REACTORS
330
C
102
}
330
C
100
AcDbDictionary
281
     1
  3
Standard
350
18
  0
DICTIONARY
  5
19
102
{ACAD_REACTORS
330
C
102
}
330
C
100
AcDbDictionary
281
     1
  0
ACDBDICTIONARYWDFLT
  5
E
102
{ACAD_REACTORS
330
C
102
}
330
C
100
AcDbDictionary
281
     1
  3
Normal
350
F
100
AcDbDictionaryWithDefault
340
F
  0
DICTIONARY
  5
8F
102
{ACAD_REACTORS
330
C
102
}
330
C
100
AcDbDictionary
281
     1
  3
DIMASSOC
350
91
  3
HIDETEXT
350
90
  0
DICTIONARY
  5
8B
102
{ACAD_REACTORS
330
C
102
}
330
C
100
AcDbDictionary
281
     1
  3
ASEBlockHierarchyIndexRecord
350
8D
1001
DCO15
1040
1764482085.652
  0
LAYOUT
  5
1E
102
{ACAD_REACTORS
330
1A
102
}
330
1A
100
AcDbPlotSettings
  1

  2
Canon MP160 Printer
  4

  6

 40
0.0
 41
0.0
 42
0.0
 43
0.0
 44
0.0
 45
0.0
 46
0.0
 47
0.0
 48
0.0
 49
0.0
140
0.0
141
0.0
142
1.0
143
1.0
 70
   688
 72
     0
 73
     0
 74
     5
  7

 75
    16
147
1.0
148
0.0
149
0.0
100
AcDbLayout
  1
Layout1
 70
     1
 71
     1
 10
0.0
 20
0.0
 11
420.0
 21
297.0
 12
0.0
 22
0.0
 32
0.0
 14
1.000000000000000E+20
 24
1.000000000000000E+20
 34
1.000000000000000E+20
 15
-1.000000000000000E+20
 25
-1.000000000000000E+20
 35
-1.000000000000000E+20
146
0.0
 13
0.0
 23
0.0
 33
0.0
 16
1.0
 26
0.0
 36
0.0
 17
0.0
 27
1.0
 37
0.0
 76
     0
330
1B
  0
LAYOUT
  5
26
102
{ACAD_REACTORS
330
1A
102
}
330
1A
100
AcDbPlotSettings
  1

  2
Canon MP160 Printer
  4

  6

 40
0.0
 41
0.0
 42
0.0
 43
0.0
 44
0.0
 45
0.0
 46
0.0
 47
0.0
 48
0.0
 49
0.0
140
0.0
141
0.0
142
1.0
143
1.0
 70
   688
 72
     0
 73
     0
 74
     5
  7

 75
    16
147
1.0
148
0.0
149
0.0
100
AcDbLayout
  1
Layout2
 70
     1
 71
     2
 10
0.0
 20
0.0
 11
12.0
 21
9.0
 12
0.0
 22
0.0
 32
0.0
 14
0.0
 24
0.0
 34
0.0
 15
0.0
 25
0.0
 35
0.0
146
0.0
 13
0.0
 23
0.0
 33
0.0
 16
1.0
 26
0.0
 36
0.0
 17
0.0
 27
1.0
 37
0.0
 76
     0
330
23
  0
LAYOUT
  5
22
102
{ACAD_REACTORS
330
1A
102
}
330
1A
100
AcDbPlotSettings
  1

  2
Canon MP160 Printer
  4

  6

 40
0.0
 41
0.0
 42
0.0
 43
0.0
 44
0.0
 45
0.0
 46
0.0
 47
0.0
 48
0.0
 49
0.0
140
0.0
141
0.0
142
1.0
143
1.0
 70
  1712
 72
     0
 73
     0
 74
     0
  7

 75
     0
147
1.0
148
0.0
149
0.0
100
AcDbLayout
  1
Model
 70
     1
 71
     0
 10
0.0
 20
0.0
 11
12.0
 21
9.0
 12
0.0
 22
0.0
 32
0.0
 14
0.0
 24
0.0
 34
0.0
 15
0.0
 25
0.0
 35
0.0
146
0.0
 13
0.0
 23
0.0
 33
0.0
 16
1.0
 26
0.0
 36
0.0
 17
0.0
 27
1.0
 37
0.0
 76
     0
330
1F
  0
MLINESTYLE
  5
18
102
{ACAD_REACTORS
330
17
102
}
330
17
100
AcDbMlineStyle
  2
STANDARD
 70
     0
  3

 62
   256
 51
90.0
 52
90.0
 71
     2
 49
0.5
 62
   256
  6
BYLAYER
 49
-0.5
 62
   256
  6
BYLAYER
  0
ACDBPLACEHOLDER
  5
F
102
{ACAD_REACTORS
330
E
102
}
330
E
  0
DICTIONARYVAR
  5
91
102
{ACAD_REACTORS
330
8F
102
}
330
8F
100
DictionaryVariables
280
     0
  1
2
  0
DICTIONARYVAR
  5
90
102
{ACAD_REACTORS
330
8F
102
}
330
8F
100
DictionaryVariables
280
     0
  1
1
  0
XRECORD
  5
8D
102
{ACAD_REACTORS
330
8B
102
}
330
8B
100
AcDbXrecord
280
     1
  0
ENDSEC
  0
EOF
