  0
SECTION
  2
HEADER
  9
$ACADVER
  1
AC1015
  9
$ACADMAINTVER
 70
    13
  9
$DWGCODEPAGE
  3
ANSI_1252
  9
$INSBASE
 10
0.0
 20
0.0
 30
0.0
  9
$EXTMIN
 10
190.2291882110634
 20
31.4193885454668
 30
-0.0015258207003612
  9
$EXTMAX
 10
550.2694713443861
 20
624.4359751937864
 30
0.0000000349246008
  9
$LIMMIN
 10
0.0
 20
0.0
  9
$LIMMAX
 10
420.0
 20
297.0
  9
$ORTHOMODE
 70
     0
  9
$REGENMODE
 70
     1
  9
$FILLMODE
 70
     1
  9
$QTEXTMODE
 70
     0
  9
$MIRRTEXT
 70
     1
  9
$LTSCALE
 40
1.0
  9
$ATTMODE
 70
     1
  9
$TEXTSIZE
 40
2.5
  9
$TRACEWID
 40
1.0
  9
$TEXTSTYLE
  7
Standard
  9
$CLAYER
  8
0
  9
$CELTYPE
  6
ByLayer
  9
$CECOLOR
 62
   256
  9
$CELTSCALE
 40
1.0
  9
$DISPSILH
 70
     0
  9
$DIMSCALE
 40
1.0
  9
$DIMASZ
 40
2.5
  9
$DIMEXO
 40
0.625
  9
$DIMDLI
 40
3.75
  9
$DIMRND
 40
0.0
  9
$DIMDLE
 40
0.0
  9
$DIMEXE
 40
1.25
  9
$DIMTP
 40
0.0
  9
$DIMTM
 40
0.0
  9
$DIMTXT
 40
2.5
  9
$DIMCEN
 40
2.5
  9
$DIMTSZ
 40
0.0
  9
$DIMTOL
 70
     0
  9
$DIMLIM
 70
     0
  9
$DIMTIH
 70
     0
  9
$DIMTOH
 70
     0
  9
$DIMSE1
 70
     0
  9
$DIMSE2
 70
     0
  9
$DIMTAD
 70
     1
  9
$DIMZIN
 70
     8
  9
$DIMBLK
  1

  9
$DIMASO
 70
     1
  9
$DIMSHO
 70
     1
  9
$DIMPOST
  1

  9
$DIMAPOST
  1

  9
$DIMALT
 70
     0
  9
$DIMALTD
 70
     3
  9
$DIMALTF
 40
0.03937007874016
  9
$DIMLFAC
 40
1.0
  9
$DIMTOFL
 70
     1
  9
$DIMTVP
 40
0.0
  9
$DIMTIX
 70
     0
  9
$DIMSOXD
 70
     0
  9
$DIMSAH
 70
     0
  9
$DIMBLK1
  1

  9
$DIMBLK2
  1

  9
$DIMSTYLE
  2
ISO-25
  9
$DIMCLRD
 70
     0
  9
$DIMCLRE
 70
     0
  9
$DIMCLRT
 70
     0
  9
$DIMTFAC
 40
1.0
  9
$DIMGAP
 40
0.625
  9
$DIMJUST
 70
     0
  9
$DIMSD1
 70
     0
  9
$DIMSD2
 70
     0
  9
$DIMTOLJ
 70
     0
  9
$DIMTZIN
 70
     8
  9
$DIMALTZ
 70
     0
  9
$DIMALTTZ
 70
     0
  9
$DIMUPT
 70
     0
  9
$DIMDEC
 70
     2
  9
$DIMTDEC
 70
     2
  9
$DIMALTU
 70
     2
  9
$DIMALTTD
 70
     3
  9
$DIMTXSTY
  7
Standard
  9
$DIMAUNIT
 70
     0
  9
$DIMADEC
 70
     0
  9
$DIMALTRND
 40
0.0
  9
$DIMAZIN
 70
     0
  9
$DIMDSEP
 70
    44
  9
$DIMATFIT
 70
     3
  9
$DIMFRAC
 70
     0
  9
$DIMLDRBLK
  1

  9
$DIMLUNIT
 70
     2
  9
$DIMLWD
 70
    -2
  9
$DIMLWE
 70
    -2
  9
$DIMTMOVE
 70
     0
  9
$LUNITS
 70
     2
  9
$LUPREC
 70
     4
  9
$SKETCHINC
 40
1.0
  9
$FILLETRAD
 40
10.0
  9
$AUNITS
 70
     0
  9
$AUPREC
 70
     0
  9
$MENU
  1
.
  9
$ELEVATION
 40
0.0
  9
$PELEVATION
 40
0.0
  9
$THICKNESS
 40
0.0
  9
$LIMCHECK
 70
     0
  9
$CHAMFERA
 40
10.0
  9
$CHAMFERB
 40
10.0
  9
$CHAMFERC
 40
20.0
  9
$CHAMFERD
 40
0.0
  9
$SKPOLY
 70
     0
  9
$TDCREATE
 40
2456147.437739282
  9
$TDUCREATE
 40
2456147.041905949
  9
$TDUPDATE
 40
2456147.439000868
  9
$TDUUPDATE
 40
2456147.043167534
  9
$TDINDWG
 40
0.0012615856
  9
$TDUSRTIMER
 40
0.0012615856
  9
$USRTIMER
 70
     1
  9
$ANGBASE
 50
0.0
  9
$ANGDIR
 70
     0
  9
$PDMODE
 70
     0
  9
$PDSIZE
 40
0.0
  9
$PLINEWID
 40
0.0
  9
$SPLFRAME
 70
     0
  9
$SPLINETYPE
 70
     6
  9
$SPLINESEGS
 70
     8
  9
$HANDSEED
  5
9E
  9
$SURFTAB1
 70
     6
  9
$SURFTAB2
 70
     6
  9
$SURFTYPE
 70
     6
  9
$SURFU
 70
     6
  9
$SURFV
 70
     6
  9
$UCSBASE
  2

  9
$UCSNAME
  2

  9
$UCSORG
 10
0.0
 20
0.0
 30
0.0
  9
$UCSXDIR
 10
1.0
 20
0.0
 30
0.0
  9
$UCSYDIR
 10
0.0
 20
1.0
 30
0.0
  9
$UCSORTHOREF
  2

  9
$UCSORTHOVIEW
 70
     0
  9
$UCSORGTOP
 10
0.0
 20
0.0
 30
0.0
  9
$UCSORGBOTTOM
 10
0.0
 20
0.0
 30
0.0
  9
$UCSORGLEFT
 10
0.0
 20
0.0
 30
0.0
  9
$UCSORGRIGHT
 10
0.0
 20
0.0
 30
0.0
  9
$UCSORGFRONT
 10
0.0
 20
0.0
 30
0.0
  9
$UCSORGBACK
 10
0.0
 20
0.0
 30
0.0
  9
$PUCSBASE
  2

  9
$PUCSNAME
  2

  9
$PUCSORG
 10
0.0
 20
0.0
 30
0.0
  9
$PUCSXDIR
 10
1.0
 20
0.0
 30
0.0
  9
$PUCSYDIR
 10
0.0
 20
1.0
 30
0.0
  9
$PUCSORTHOREF
  2

  9
$PUCSORTHOVIEW
 70
     0
  9
$PUCSORGTOP
 10
0.0
 20
0.0
 30
0.0
  9
$PUCSORGBOTTOM
 10
0.0
 20
0.0
 30
0.0
  9
$PUCSORGLEFT
 10
0.0
 20
0.0
 30
0.0
  9
$PUCSORGRIGHT
 10
0.0
 20
0.0
 30
0.0
  9
$PUCSORGFRONT
 10
0.0
 20
0.0
 30
0.0
  9
$PUCSORGBACK
 10
0.0
 20
0.0
 30
0.0
  9
$USERI1
 70
     0
  9
$USERI2
 70
     0
  9
$USERI3
 70
     0
  9
$USERI4
 70
     0
  9
$USERI5
 70
     0
  9
$USERR1
 40
0.0
  9
$USERR2
 40
0.0
  9
$USERR3
 40
0.0
  9
$USERR4
 40
0.0
  9
$USERR5
 40
0.0
  9
$WORLDVIEW
 70
     1
  9
$SHADEDGE
 70
     3
  9
$SHADEDIF
 70
    70
  9
$TILEMODE
 70
     1
  9
$MAXACTVP
 70
    64
  9
$PINSBASE
 10
0.0
 20
0.0
 30
0.0
  9
$PLIMCHECK
 70
     0
  9
$PEXTMIN
 10
28.73798246383666
 20
20.1612506389618
 30
0.0
  9
$PEXTMAX
 10
258.64184217453
 20
181.4512557506561
 30
0.0
  9
$PLIMMIN
 10
-3.757080078125
 20
-4.180416584014892
  9
$PLIMMAX
 10
293.2112426757812
 20
205.7929110527038
  9
$UNITMODE
 70
     0
  9
$VISRETAIN
 70
     1
  9
$PLINEGEN
 70
     0
  9
$PSLTSCALE
 70
     1
  9
$TREEDEPTH
 70
  3020
  9
$CMLSTYLE
  2
Standard
  9
$CMLJUST
 70
     0
  9
$CMLSCALE
 40
20.0
  9
$PROXYGRAPHICS
 70
     1
  9
$MEASUREMENT
 70
     1
  9
$CELWEIGHT
370
    -1
  9
$ENDCAPS
280
     0
  9
$JOINSTYLE
280
     0
  9
$LWDISPLAY
290
     0
  9
$INSUNITS
 70
     4
  9
$HYPERLINKBASE
  1

  9
$STYLESHEET
  1

  9
$XEDIT
290
     1
  9
$CEPSNTYPE
380
     0
  9
$PSTYLEMODE
290
     1
  9
$FINGERPRINTGUID
  2
{16975891-3196-4E2F-87FA-3EF8F436F81A}
  9
$VERSIONGUID
  2
{9C1BE6D6-4CC7-42B5-A35A-981BBDF95D23}
  9
$EXTNAMES
290
     1
  9
$PSVPSCALE
 40
0.0
  9
$OLESTARTUP
290
     0
  0
ENDSEC
  0
SECTION
  2
CLASSES
  0
CLASS
  1
ACDBDICTIONARYWDFLT
  2
AcDbDictionaryWithDefault
  3
AutoCAD 2000
 90
        0
280
     0
281
     0
  0
CLASS
  1
ACDBPLACEHOLDER
  2
AcDbPlaceHolder
  3
AutoCAD 2000
 90
        0
280
     0
281
     0
  0
CLASS
  1
LAYOUT
  2
AcDbLayout
  3
AutoCAD 2000
 90
        0
280
     0
281
     0
  0
CLASS
  1
DICTIONARYVAR
  2
AcDbDictionaryVar
  3
AutoCAD 2000
 90
        0
280
     0
281
     0
  0
ENDSEC
  0
SECTION
  2
TABLES
  0
TABLE
  2
VPORT
  5
8
330
0
100
AcDbSymbolTable
 70
     4
  0
VPORT
  5
9D
330
8
100
AcDbSymbolTableRecord
100
AcDbViewportTableRecord
  2
*Active
 70
     0
 10
0.0
 20
0.0
 11
1.0
 21
1.0
 12
275.134735672193
 22
312.2179875968931
 13
0.0
 23
0.0
 14
10.0
 24
10.0
 15
10.0
 25
10.0
 16
0.0
 26
0.0
 36
1.0
 17
0.0
 27
0.0
 37
0.0
 40
631.7109574290537
 41
2.470817120622568
 42
50.0
 43
0.0
 44
0.0
 50
0.0
 51
0.0
 71
     0
 72
   100
 73
     1
 74
     3
 75
     0
 76
     0
 77
     0
 78
     0
281
     0
 65
     1
110
0.0
120
0.0
130
0.0
111
1.0
121
0.0
131
0.0
112
0.0
122
1.0
132
0.0
 79
     0
146
0.0
  0
ENDTAB
  0
TABLE
  2
LTYPE
  5
5
330
0
100
AcDbSymbolTable
 70
     1
  0
LTYPE
  5
14
330
5
100
AcDbSymbolTableRecord
100
AcDbLinetypeTableRecord
  2
ByBlock
 70
     0
  3

 72
    65
 73
     0
 40
0.0
  0
LTYPE
  5
15
330
5
100
AcDbSymbolTableRecord
100
AcDbLinetypeTableRecord
  2
ByLayer
 70
     0
  3

 72
    65
 73
     0
 40
0.0
  0
LTYPE
  5
16
330
5
100
AcDbSymbolTableRecord
100
AcDbLinetypeTableRecord
  2
Continuous
 70
     0
  3
Solid line
 72
    65
 73
     0
 40
0.0
  0
ENDTAB
  0
TABLE
  2
LAYER
  5
2
330
0
100
AcDbSymbolTable
 70
     3
  0
LAYER
  5
10
330
2
100
AcDbSymbolTableRecord
100
AcDbLayerTableRecord
  2
0
 70
     0
 62
     7
  6
Continuous
370
    -3
390
F
  0
LAYER
  5
2B
330
2
100
AcDbSymbolTableRecord
100
AcDbLayerTableRecord
  2
CK_LEVEL_1
 70
     0
 62
     7
  6
Continuous
370
    -3
390
F
  0
LAYER
  5
2C
330
2
100
AcDbSymbolTableRecord
100
AcDbLayerTableRecord
  2
CK_LEVEL_2
 70
     0
 62
     7
  6
Continuous
370
    -3
390
F
  0
ENDTAB
  0
TABLE
  2
STYLE
  5
3
330
0
100
AcDbSymbolTable
 70
     1
  0
STYLE
  5
11
330
3
100
AcDbSymbolTableRecord
100
AcDbTextStyleTableRecord
  2
Standard
 70
     0
 40
0.0
 41
1.0
 50
0.0
 71
     0
 42
2.5
  3
txt
  4

  0
ENDTAB
  0
TABLE
  2
VIEW
  5
6
330
0
100
AcDbSymbolTable
 70
     0
  0
ENDTAB
  0
TABLE
  2
UCS
  5
7
330
0
100
AcDbSymbolTable
 70
     0
  0
ENDTAB
  0
TABLE
  2
APPID
  5
9
330
0
100
AcDbSymbolTable
 70
     2
  0
APPID
  5
12
330
9
100
AcDbSymbolTableRecord
100
AcDbRegAppTableRecord
  2
ACAD
 70
     0
  0
APPID
  5
98
330
9
100
AcDbSymbolTableRecord
100
AcDbRegAppTableRecord
  2
DCO15
 70
     0
  0
ENDTAB
  0
TABLE
  2
DIMSTYLE
  5
A
330
0
100
AcDbSymbolTable
 70
     2
100
AcDbDimStyleTable
 71
     0
  0
DIMSTYLE
105
27
330
A
100
AcDbSymbolTableRecord
100
AcDbDimStyleTableRecord
  2
ISO-25
 70
     0
 41
2.5
 42
0.625
 43
3.75
 44
1.25
 73
     0
 74
     0
 77
     1
 78
     8
140
2.5
141
2.5
143
0.03937007874016
147
0.625
171
     3
172
     1
271
     2
272
     2
274
     3
278
    44
283
     0
284
     8
340
11
  0
DIMSTYLE
105
2D
330
A
100
AcDbSymbolTableRecord
100
AcDbDimStyleTableRecord
  2
STANDARD
 70
     0
340
11
  0
ENDTAB
  0
TABLE
  2
BLOCK_RECORD
  5
1
330
0
100
AcDbSymbolTable
 70
     2
  0
BLOCK_RECORD
  5
1F
330
1
100
AcDbSymbolTableRecord
100
AcDbBlockTableRecord
  2
*Model_Space
340
22
  0
BLOCK_RECORD
  5
1B
330
1
100
AcDbSymbolTableRecord
100
AcDbBlockTableRecord
  2
*Paper_Space
340
1E
  0
BLOCK_RECORD
  5
23
330
1
100
AcDbSymbolTableRecord
100
AcDbBlockTableRecord
  2
*Paper_Space0
340
26
  0
ENDTAB
  0
ENDSEC
  0
SECTION
  2
BLOCKS
  0
BLOCK
  5
20
330
1F
100
AcDbEntity
  8
0
100
AcDbBlockBegin
  2
*Model_Space
 70
     0
 10
0.0
 20
0.0
 30
0.0
  3
*Model_Space
  1

  0
ENDBLK
  5
21
330
1F
100
AcDbEntity
  8
0
100
AcDbBlockEnd
  0
BLOCK
  5
1C
330
1B
100
AcDbEntity
 67
     1
  8
0
100
AcDbBlockBegin
  2
*Paper_Space
 70
     0
 10
0.0
 20
0.0
 30
0.0
  3
*Paper_Space
  1

  0
ENDBLK
  5
1D
330
1B
100
AcDbEntity
 67
     1
  8
0
100
AcDbBlockEnd
  0
BLOCK
  5
24
330
23
100
AcDbEntity
  8
0
100
AcDbBlockBegin
  2
*Paper_Space0
 70
     0
 10
0.0
 20
0.0
 30
0.0
  3
*Paper_Space0
  1

  0
VIEWPORT
  5
93
330
23
100
AcDbEntity
  8
0
100
AcDbViewport
 10
144.7270812988281
 20
100.8062472343444
 30
0.0
 40
548.8964229812325
 41
222.1517806396484
 69
     1
 12
144.7270812988281
 22
100.8062472343444
 13
0.0
 23
0.0
 14
10.0
 24
10.0
 15
10.0
 25
10.0
 16
0.0
 26
0.0
 36
1.0
 17
0.0
 27
0.0
 37
0.0
 42
50.0
 43
0.0
 44
0.0
 45
222.1517806396484
 50
0.0
 51
0.0
 72
   100
 90
    32800
  1

281
     0
 71
     1
 74
     0
110
0.0
120
0.0
130
0.0
111
1.0
121
0.0
131
0.0
112
0.0
122
1.0
132
0.0
 79
     0
146
0.0
  0
VIEWPORT
  5
95
330
23
100
AcDbEntity
  8
0
100
AcDbViewport
 10
143.6899123191833
 20
100.8062531948089
 30
0.0
 40
229.9038597106934
 41
161.2900051116943
 69
     2
 12
370.2493297777248
 22
327.9276818696265
 13
0.0
 23
0.0
 14
10.0
 24
10.0
 15
10.0
 25
10.0
 16
0.0
 26
0.0
 36
1.0
 17
0.0
 27
0.0
 37
0.0
 42
50.0
 43
0.0
 44
0.0
 45
602.5557274523139
 50
0.0
 51
0.0
 72
   100
 90
    32864
  1

281
     0
 71
     1
 74
     0
110
0.0
120
0.0
130
0.0
111
1.0
121
0.0
131
0.0
112
0.0
122
1.0
132
0.0
 79
     0
146
0.0
  0
ENDBLK
  5
25
330
23
100
AcDbEntity
  8
0
100
AcDbBlockEnd
  0
ENDSEC
  0
SECTION
  2
ENTITIES
  0
LINE
  5
5E
330
1F
100
AcDbEntity
  8
CK_LEVEL_1
  6
Continuous
 62
     3
100
AcDbLine
 10
550.2422263025869
 20
31.43009707212226
 30
0.0
 11
550.2422263025869
 21
624.4300970721221
 31
0.0
  0
LINE
  5
5F
330
1F
100
AcDbEntity
  8
CK_LEVEL_1
  6
Continuous
 62
     3
100
AcDbLine
 10
190.2422263025869
 20
31.43009707212226
 30
0.0
 11
190.2422263025869
 21
624.4300970721221
 31
0.0
  0
LINE
  5
60
330
1F
100
AcDbEntity
  8
CK_LEVEL_1
  6
Continuous
 62
     3
100
AcDbLine
 10
190.2422263025869
 20
31.43009707212226
 30
0.0
 11
550.2422263025869
 21
31.43009707212226
 31
0.0
  0
ARC
  5
61
330
1F
100
AcDbEntity
  8
CK_LEVEL_2
  6
Continuous
 62
     3
100
AcDbCircle
 10
-1490.897025901413
 20
436.6299301447222
 30
0.0
 40
1958.6608578137
100
AcDbArc
 50
358.6776732815023
 51
359.7298377832994
  0
LINE
  5
62
330
1F
100
AcDbEntity
  8
CK_LEVEL_2
  6
Continuous
 62
     3
100
AcDbLine
 10
275.6133179533867
 20
436.5854744429222
 30
0.0
 11
276.2422263025869
 21
391.4300970721222
 31
0.0
  0
ARC
  5
63
330
1F
100
AcDbEntity
  8
CK_LEVEL_2
  6
Continuous
 62
     3
100
AcDbCircle
 10
482.0530888651865
 20
281.4656861770221
 30
0.0
 40
191.5016185190999
100
AcDbArc
 50
197.3275219141013
 51
202.8336541779037
  0
ARC
  5
64
330
1F
100
AcDbEntity
  8
CK_LEVEL_2
  6
Continuous
 62
     3
100
AcDbCircle
 10
306.3773786614865
 20
269.9311711798222
 30
0.0
 40
143.2815569761
100
AcDbArc
 50
335.8977654988064
 51
341.4843261613023
  0
ARC
  5
65
330
1F
100
AcDbEntity
  8
CK_LEVEL_2
  6
Continuous
 62
     3
100
AcDbCircle
 10
486.6287782049867
 20
319.4930101410222
 30
0.0
 40
222.9014999583
100
AcDbArc
 50
229.6354634268954
 51
233.8828827520066
  0
ARC
  5
66
330
1F
100
AcDbEntity
  8
CK_LEVEL_2
  6
Continuous
 62
     3
100
AcDbCircle
 10
480.3422051775869
 20
271.5040753119222
 30
0.0
 40
185.7298705057
100
AcDbArc
 50
207.2614916283012
 51
213.6900675260064
  0
ARC
  5
67
330
1F
100
AcDbEntity
  8
CK_LEVEL_2
  6
Continuous
 62
     3
100
AcDbCircle
 10
392.6453378220867
 20
208.9242567493222
 30
0.0
 40
77.7865927544
100
AcDbArc
 50
222.4423807124899
 51
229.6354634268954
  0
ARC
  5
68
330
1F
100
AcDbEntity
  8
CK_LEVEL_2
  6
Continuous
 62
     3
100
AcDbCircle
 10
409.2513587002867
 20
224.1101776603222
 30
0.0
 40
100.2893064424
100
AcDbArc
 50
213.6900675260064
 51
222.4423807124899
  0
ARC
  5
69
330
1F
100
AcDbEntity
  8
CK_LEVEL_2
  6
Continuous
 62
     3
100
AcDbCircle
 10
578.4080841208865
 20
322.0362104952221
 30
0.0
 40
296.0494666757
100
AcDbArc
 50
202.8336541779037
 51
207.2614916283012
  0
ARC
  5
6A
330
1F
100
AcDbEntity
  8
CK_LEVEL_2
  6
Continuous
 62
     3
100
AcDbCircle
 10
144.1864003863868
 20
329.1348123514222
 30
0.0
 40
315.2094748645
100
AcDbArc
 50
329.0362434679055
 51
333.0810410380025
  0
ARC
  5
6B
330
1F
100
AcDbEntity
  8
CK_LEVEL_2
  6
Continuous
 62
     3
100
AcDbCircle
 10
374.6700226346865
 20
181.8875548619222
 30
0.0
 40
41.34042342439999
100
AcDbArc
 50
310.3645365731046
 51
321.9898832085914
  0
ARC
  5
6C
330
1F
100
AcDbEntity
  8
CK_LEVEL_2
  6
Continuous
 62
     3
100
AcDbCircle
 10
338.6084571564865
 20
209.0281574520222
 30
0.0
 40
84.9066164088
100
AcDbArc
 50
295.2011236454905
 51
304.9451001796047
  0
ARC
  5
6D
330
1F
100
AcDbEntity
  8
CK_LEVEL_2
  6
Continuous
 62
     3
100
AcDbCircle
 10
408.0062631376867
 20
211.7422632736222
 30
0.0
 40
89.5158810708
100
AcDbArc
 50
233.8828827520066
 51
241.92751306409
  0
ARC
  5
6E
330
1F
100
AcDbEntity
  8
CK_LEVEL_2
  6
Continuous
 62
     3
100
AcDbCircle
 10
371.4320517257865
 20
143.1656168762222
 30
0.0
 40
11.7956818205
100
AcDbArc
 50
241.92751306409
 51
264.2107532861896
  0
ARC
  5
6F
330
1F
100
AcDbEntity
  8
CK_LEVEL_2
  6
Continuous
 62
     3
100
AcDbCircle
 10
371.1077671207867
 20
139.9671237779223
 30
0.0
 40
8.580791681699999
100
AcDbArc
 50
264.2107532861896
 51
295.2011236454905
  0
ARC
  5
70
330
1F
100
AcDbEntity
  8
CK_LEVEL_2
  6
Continuous
 62
     3
100
AcDbCircle
 10
278.5725802758865
 20
294.9433694017222
 30
0.0
 40
189.7194503424
100
AcDbArc
 50
304.9451001796047
 51
310.3645365731046
  0
ARC
  5
71
330
1F
100
AcDbEntity
  8
CK_LEVEL_2
  6
Continuous
 62
     3
100
AcDbCircle
 10
325.3387273845869
 20
220.4434161525222
 30
0.0
 40
103.9513739913999
100
AcDbArc
 50
321.9898832085914
 51
329.0362434679055
  0
ARC
  5
72
330
1F
100
AcDbEntity
  8
CK_LEVEL_2
  6
Continuous
 62
     3
100
AcDbCircle
 10
-77.01627927611321
 20
441.4493865729222
 30
0.0
 40
563.2925034506
100
AcDbArc
 50
333.0810410380025
 51
335.8977654988064
  0
ARC
  5
73
330
1F
100
AcDbEntity
  8
CK_LEVEL_2
  6
Continuous
 62
     3
100
AcDbCircle
 10
1357.546696914286
 20
455.6400729747222
 30
0.0
 40
1085.699417131799
100
AcDbArc
 50
187.5238204385978
 51
189.3404731047013
  0
ARC
  5
74
330
1F
100
AcDbEntity
  8
CK_LEVEL_2
  6
Continuous
 62
     3
100
AcDbCircle
 10
693.7737722849865
 20
346.4615767934222
 30
0.0
 40
413.0074820683
100
AcDbArc
 50
189.3404731047013
 51
193.2985703304999
  0
ARC
  5
75
330
1F
100
AcDbEntity
  8
CK_LEVEL_2
  6
Continuous
 62
     3
100
AcDbCircle
 10
679.7666411073869
 20
343.1508003332222
 30
0.0
 40
398.6143946791
100
AcDbArc
 50
193.2985703304999
 51
197.3275219141013
  0
ARC
  5
76
330
1F
100
AcDbEntity
  8
CK_LEVEL_2
  6
Continuous
 62
     3
100
AcDbCircle
 10
1836.225802922986
 20
447.8858435040222
 30
0.0
 40
1561.2584306417
100
AcDbArc
 50
182.9108378262032
 51
184.2409194204024
  0
ARC
  5
77
330
1F
100
AcDbEntity
  8
CK_LEVEL_2
  6
Continuous
 62
     3
100
AcDbCircle
 10
610.8536618925868
 20
357.0202381605221
 30
0.0
 40
332.5219079291999
100
AcDbArc
 50
184.2409194204024
 51
187.5238204385978
  0
ARC
  5
78
330
1F
100
AcDbEntity
  8
CK_LEVEL_2
  6
Continuous
 62
     3
100
AcDbCircle
 10
896.2206744791865
 20
400.0889725662222
 30
0.0
 40
620.0389119469
100
AcDbArc
 50
180.8001645359021
 51
182.9108378262032
  0
ARC
  5
79
330
1F
100
AcDbEntity
  8
CK_LEVEL_2
  6
Continuous
 62
     3
100
AcDbCircle
 10
-997.9071145776133
 20
534.7726061416222
 30
0.0
 40
1475.4127571085
100
AcDbArc
 50
350.0339194126993
 51
351.4163785198981
  0
ARC
  5
7A
330
1F
100
AcDbEntity
  8
CK_LEVEL_2
  6
Continuous
 62
     3
100
AcDbCircle
 10
-129.1657714861132
 20
382.1203025986222
 30
0.0
 40
593.3615981763999
100
AcDbArc
 50
346.7014296695001
 51
350.0339194126993
  0
ARC
  5
7B
330
1F
100
AcDbEntity
  8
CK_LEVEL_2
  6
Continuous
 62
     3
100
AcDbCircle
 10
212.5783783391866
 20
301.3444126399222
 30
0.0
 40
242.2009393056999
100
AcDbArc
 50
341.4843261613023
 51
346.7014296695001
  0
ARC
  5
7C
330
1F
100
AcDbEntity
  8
CK_LEVEL_2
  6
Continuous
 62
     3
100
AcDbCircle
 10
-501.6542882402132
 20
431.3048491809222
 30
0.0
 40
969.9492256718
100
AcDbArc
 50
354.1492158767037
 51
356.1214754971998
  0
ARC
  5
7D
330
1F
100
AcDbEntity
  8
CK_LEVEL_2
  6
Continuous
 62
     3
100
AcDbCircle
 10
87.59208699588681
 20
370.9236700551223
 30
0.0
 40
377.6172431472999
100
AcDbArc
 50
351.4163785198981
 51
354.1492158767037
  0
ARC
  5
7E
330
1F
100
AcDbEntity
  8
CK_LEVEL_2
  6
Continuous
 62
     3
100
AcDbCircle
 10
-110.0580175439133
 20
404.7559494727222
 30
0.0
 40
577.4540240464
100
AcDbArc
 50
356.1214754971998
 51
358.6776732815023
  0
LINE
  5
7F
330
1F
100
AcDbEntity
  8
CK_LEVEL_1
  6
Continuous
 62
     3
100
AcDbLine
 10
470.2422263025868
 20
624.4300970721221
 30
0.0
 11
550.2422263025869
 21
624.4300970721221
 31
0.0
  0
ARC
  5
80
330
1F
100
AcDbEntity
  8
CK_LEVEL_2
  6
Continuous
 62
     3
100
AcDbCircle
 10
-3249.076474022413
 20
567.3381059840223
 30
0.0
 40
3719.7568589941
100
AcDbArc
 50
0.0
 51
0.8794280652010495
  0
LINE
  5
81
330
1F
100
AcDbEntity
  8
CK_LEVEL_2
  6
Continuous
 62
     3
100
AcDbLine
 10
273.2422263025869
 20
624.4300970721221
 30
0.0
 11
273.8546038269869
 21
567.1156766965223
 31
0.0
  0
LINE
  5
82
330
1F
100
AcDbEntity
  8
CK_LEVEL_2
  6
Continuous
 62
     3
100
AcDbLine
 10
274.2522263025866
 20
535.4300970721221
 30
0.0
 11
275.2422263025869
 21
463.4300970721222
 31
0.0
  0
LINE
  5
83
330
1F
100
AcDbEntity
  8
CK_LEVEL_2
  6
Continuous
 62
     3
100
AcDbLine
 10
275.2422263025869
 20
463.4300970721222
 30
0.0
 11
275.6133179533867
 21
436.5854744429222
 31
0.0
  0
ARC
  5
84
330
1F
100
AcDbEntity
  8
CK_LEVEL_2
  6
Continuous
 62
     3
100
AcDbCircle
 10
13470.67348835558
 20
716.8773292062224
 30
0.0
 40
13197.6686283455
100
AcDbArc
 50
180.6501826214006
 51
180.7877518703024
  0
LINE
  5
85
330
1F
100
AcDbEntity
  8
CK_LEVEL_2
  6
Continuous
 62
     3
100
AcDbLine
 10
468.6233709915868
 20
478.0802931504221
 30
0.0
 11
470.2422263025868
 21
535.4300970721221
 31
0.0
  0
ARC
  5
86
330
1F
100
AcDbEntity
  8
CK_LEVEL_2
  6
Continuous
 62
     3
100
AcDbCircle
 10
2434.153912693286
 20
418.1223135238222
 30
0.0
 40
1966.4337146056
100
AcDbArc
 50
178.6797548800005
 51
179.7298377832016
  0
ARC
  5
87
330
1F
100
AcDbEntity
  8
CK_LEVEL_2
  6
Continuous
 62
     3
100
AcDbCircle
 10
2936.564851240687
 20
406.5433976378222
 30
0.0
 40
2468.9780633602
100
AcDbArc
 50
178.3396628906004
 51
178.6797548800005
  0
ARC
  5
88
330
1F
100
AcDbEntity
  8
CK_LEVEL_2
  6
Continuous
 62
     3
100
AcDbCircle
 10
-691.3564381628132
 20
567.3381059840223
 30
0.0
 40
1162.0368231344
100
AcDbArc
 50
358.4265351822014
 51
0.0
  0
LINE
  5
89
330
1F
100
AcDbEntity
  8
CK_LEVEL_1
  6
Continuous
 62
     3
100
AcDbLine
 10
190.2422263025869
 20
624.4300970721221
 30
0.0
 11
273.2422263025869
 21
624.4300970721221
 31
0.0
  0
VIEWPORT
  5
8D
330
1B
100
AcDbEntity
 67
     1
  8
0
100
AcDbViewport
 10
144.7270812988281
 20
100.8062472343444
 30
0.0
 40
548.8964229812325
 41
222.1517806396484
 68
     1
 69
     1
 12
144.7270812988281
 22
100.8062472343444
 13
0.0
 23
0.0
 14
10.0
 24
10.0
 15
10.0
 25
10.0
 16
0.0
 26
0.0
 36
1.0
 17
0.0
 27
0.0
 37
0.0
 42
50.0
 43
0.0
 44
0.0
 45
222.1517806396484
 50
0.0
 51
0.0
 72
   100
 90
    32800
  1

281
     0
 71
     1
 74
     0
110
0.0
120
0.0
130
0.0
111
1.0
121
0.0
131
0.0
112
0.0
122
1.0
132
0.0
 79
     0
146
0.0
  0
VIEWPORT
  5
8F
330
1B
100
AcDbEntity
 67
     1
  8
0
100
AcDbViewport
 10
143.6899123191833
 20
100.8062531948089
 30
0.0
 40
229.9038597106934
 41
161.2900051116943
 68
     2
 69
     2
 12
370.2493297777248
 22
327.9276818696265
 13
0.0
 23
0.0
 14
10.0
 24
10.0
 15
10.0
 25
10.0
 16
0.0
 26
0.0
 36
1.0
 17
0.0
 27
0.0
 37
0.0
 42
50.0
 43
0.0
 44
0.0
 45
602.5557274523139
 50
0.0
 51
0.0
 72
   100
 90
    32864
  1

281
     0
 71
     1
 74
     0
110
0.0
120
0.0
130
0.0
111
1.0
121
0.0
131
0.0
112
0.0
122
1.0
132
0.0
 79
     0
146
0.0
  0
ENDSEC
  0
SECTION
  2
OBJECTS
  0
DICTIONARY
  5
C
330
0
100
AcDbDictionary
281
     1
  3
ACAD_GROUP
350
D
  3
ACAD_LAYOUT
350
1A
  3
ACAD_MLINESTYLE
350
17
  3
ACAD_PLOTSETTINGS
350
19
  3
ACAD_PLOTSTYLENAME
350
E
  3
AcDbVariableDictionary
350
9A
  3
ASE_INDEX_DICTIONARY
350
97
  0
DICTIONARY
  5
D
102
{ACAD_REACTORS
330
C
102
}
330
C
100
AcDbDictionary
281
     1
  0
DICTIONARY
  5
1A
102
{ACAD_REACTORS
330
C
102
}
330
C
100
AcDbDictionary
281
     1
  3
Layout1
350
1E
  3
Layout2
350
26
  3
Model
350
22
  0
DICTIONARY
  5
17
102
{ACAD_REACTORS
330
C
102
}
330
C
100
AcDbDictionary
281
     1
  3
Standard
350
18
  0
DICTIONARY
  5
19
102
{ACAD_REACTORS
330
C
102
}
330
C
100
AcDbDictionary
281
     1
  0
ACDBDICTIONARYWDFLT
  5
E
102
{ACAD_REACTORS
330
C
102
}
330
C
100
AcDbDictionary
281
     1
  3
Normal
350
F
100
AcDbDictionaryWithDefault
340
F
  0
DICTIONARY
  5
9A
102
{ACAD_REACTORS
330
C
102
}
330
C
100
AcDbDictionary
281
     1
  3
DIMASSOC
350
9C
  3
HIDETEXT
350
9B
  0
DICTIONARY
  5
97
102
{ACAD_REACTORS
330
C
102
}
330
C
100
AcDbDictionary
281
     1
  3
ASEBlockHierarchyIndexRecord
350
99
1001
DCO15
1040
1757741225.675
  0
LAYOUT
  5
1E
102
{ACAD_REACTORS
330
1A
102
}
330
1A
100
AcDbPlotSettings
  1

  2
Canon MP160 Printer
  4
A4
  6

 40
4.180416584014892
 41
5.83141803741455
 42
4.180404663085937
 43
3.757080078125
 44
209.9733276367187
 45
296.9683227539062
 46
0.0
 47
0.0
 48
0.0
 49
0.0
140
0.0
141
0.0
142
1.0
143
1.0
 70
   688
 72
     1
 73
     1
 74
     5
  7

 75
    16
147
1.0
148
0.0
149
0.0
100
AcDbLayout
  1
Layout1
 70
     1
 71
     1
 10
-3.757080078125
 20
-4.180416584014892
 11
293.2112426757812
 21
205.7929110527038
 12
0.0
 22
0.0
 32
0.0
 14
28.73798246383666
 24
20.1612506389618
 34
0.0
 15
258.64184217453
 25
181.4512557506561
 35
0.0
146
0.0
 13
0.0
 23
0.0
 33
0.0
 16
1.0
 26
0.0
 36
0.0
 17
0.0
 27
1.0
 37
0.0
 76
     0
330
1B
331
8D
  0
LAYOUT
  5
26
102
{ACAD_REACTORS
330
1A
102
}
330
1A
100
AcDbPlotSettings
  1

  2
Canon MP160 Printer
  4
A4
  6

 40
4.180416584014892
 41
5.83141803741455
 42
4.180404663085937
 43
3.757080078125
 44
209.9733276367187
 45
296.9683227539062
 46
0.0
 47
0.0
 48
0.0
 49
0.0
140
0.0
141
0.0
142
1.0
143
1.0
 70
   688
 72
     1
 73
     1
 74
     5
  7

 75
    16
147
1.0
148
0.0
149
0.0
100
AcDbLayout
  1
Layout2
 70
     1
 71
     2
 10
-3.757080078125
 20
-4.180416584014892
 11
293.2112426757812
 21
205.7929110527038
 12
0.0
 22
0.0
 32
0.0
 14
28.73798246383666
 24
20.1612506389618
 34
0.0
 15
258.64184217453
 25
181.4512557506561
 35
0.0
146
0.0
 13
0.0
 23
0.0
 33
0.0
 16
1.0
 26
0.0
 36
0.0
 17
0.0
 27
1.0
 37
0.0
 76
     0
330
23
331
93
  0
LAYOUT
  5
22
102
{ACAD_REACTORS
330
1A
102
}
330
1A
100
AcDbPlotSettings
  1

  2
Canon MP160 Printer
  4

  6

 40
0.0
 41
0.0
 42
0.0
 43
0.0
 44
0.0
 45
0.0
 46
0.0
 47
0.0
 48
0.0
 49
0.0
140
0.0
141
0.0
142
1.0
143
1.0
 70
  1712
 72
     0
 73
     0
 74
     0
  7

 75
     0
147
1.0
148
0.0
149
0.0
100
AcDbLayout
  1
Model
 70
     1
 71
     0
 10
0.0
 20
0.0
 11
12.0
 21
9.0
 12
0.0
 22
0.0
 32
0.0
 14
0.0
 24
0.0
 34
0.0
 15
0.0
 25
0.0
 35
0.0
146
0.0
 13
0.0
 23
0.0
 33
0.0
 16
1.0
 26
0.0
 36
0.0
 17
0.0
 27
1.0
 37
0.0
 76
     0
330
1F
  0
MLINESTYLE
  5
18
102
{ACAD_REACTORS
330
17
102
}
330
17
100
AcDbMlineStyle
  2
STANDARD
 70
     0
  3

 62
   256
 51
90.0
 52
90.0
 71
     2
 49
0.5
 62
   256
  6
BYLAYER
 49
-0.5
 62
   256
  6
BYLAYER
  0
ACDBPLACEHOLDER
  5
F
102
{ACAD_REACTORS
330
E
102
}
330
E
  0
DICTIONARYVAR
  5
9C
102
{ACAD_REACTORS
330
9A
102
}
330
9A
100
DictionaryVariables
280
     0
  1
2
  0
DICTIONARYVAR
  5
9B
102
{ACAD_REACTORS
330
9A
102
}
330
9A
100
DictionaryVariables
280
     0
  1
1
  0
XRECORD
  5
99
102
{ACAD_REACTORS
330
97
102
}
330
97
100
AcDbXrecord
280
     1
  0
ENDSEC
  0
EOF
